Amal Perera - Mal Pita Mal Guitar Chords

Chords: Am, G, F, E, Dm
Artist    -  Amal Perera 
Song      -  Mal Pita Mal
Key       -  Am
Beat      -  4/4
Midi File         -  unavailable
Backing Track     -  unavailable
Contributed By    -  Shalin Jayasuriya and Miyuru




[Intro]
--------------------------------------------
|Am  |G  |F  |E  |

[Chorus]
--------------------------------------------
Am           G            F        E
Mal pita mal Helena digu maawathe
Am                    G        F         G       
Piya matha piya thabamin hinehena nube...
Am             G        Dm  Am
Ingi naluwata washivi..... ....
Am          G        F          E
aththala nagai thurupath pawa...     

[Inter]
--------------------------------------------
|Am  |E  |Dm  |-  |
|E   |-  |Am  |E  |
|Dm  |-  |E   |-  |
|Am  |G  |F   |E  |

[Verse 1]
-------------------------------------------
Am                    G            Am  
Diya pita diya reali nagana gan diye
Am                 G        Am 
Seda rala mathin oruwaka negi
     Dm                   E 
Etherata yanu deaka obai mamai
      F         G           Am 
Seda nala pawa hamana heti pudumai
  F         G           Am      E
Seda nala pawa hamana heti pudumai
  
[Verse 2]
------------------------------------------
Am              G               Am  
Vehi pita wehi helena raathriye
Am              G             Am  
Unuhum vemein thurulata wewi
      Dm                        E  
Mudu rasa vidina sanda obai mamai
     F          G             Am 
Hirikada pawa denena heti pudumai
     F          G             Am     E
Hirikada pawa denena heti puduma


[Inter]

e|---------------------------1-0---------------------------------------------------|
B|---0-1----0-1--3-1---0-1-3-------------------------------------------------------|
G|-2------2------------------------------------------------------------------------|
D|---------------------------------------------------------------------------------|
A|---------------------------------------------------------------------------------|
E|---------------------------------------------------------------------------------|

                                                  |  Am |  G  |  F  |  E  |
e|----------0-1----5-4-------------------------------------------------------------|
B|-1\3--3-3-------------6-5----5---5h6p5---5---------------------------------------|
G|---------------------------7-----------7-----------------------------------------|
D|---------------------------------------------------------------------------------|
A|---------------------------------------------------------------------------------|
E|---------------------------------------------------------------------------------|

More chords by Amal Perera: