Aly & AJ - Rush Guitar Chords

Aly & AJ

dance pop, girl group, neo mellow, pop

Song versions: 1 2 3 4 5 6
Chords: Am, D, Em, A, Fmaj7, C, G, Fmaj
Here's a tab for Rush. The beginning pick part isn't exactly how Aj plays it, but it's 
enough. Questions/comments: sportsfr3ak549@yahoo.com

Capo 5

Intro/verse
Am
e-------0-------------------0------------------------------|
b-------------0-----0h1-----------0----0h1-----------------|
g----2-----2-----2-------2-----2-----2---------------------|
d--2-------------------------------------------------------|
a----------------------------------------------------------|
e----------------------------------------------------------|

D                                Em
---------2---------2------------------0--------0-------------|
-------------3--------3------------------0--------0----------|
------2---------2--------2------------------0--------0-------|
--0--------------------------------2-------------------------|
-------------------------------------------------------------|
--------------------------------0----------------------------|


Pre-chorus:
Am Em repeat A couple times

Chorus:
Am Fmaj7(x03210) C G

Bridge: A C G Fmaj Repeat twice, then Am Em

little picking part at end of bridge:
e--3----------3----------3----------|
b-----1----------1-----------1------|
g--------2-----------2--------------|
d-----------------------------------|

More chords by Aly & AJ: