Alvy, Nacho y Rubin - Ya No Te Quiero Más Guitar Chords

Alvy, Nacho y Rubin

argentine indie

Chords: G, A, D, Bm
Los campos magnéticos

Letra y música originales: Stephin Merritt
Adaptación y traducción: Alvy, Nacho y Rubin

La guitarra rítmica (los acordes) se toca con capo en el 3er traste.
El punteo lo indico para una guitarra sin capo.

Intro: G       A           D        G
E---------------------------------------------------------------------
B---------------------------------------------------------------------
G--0-2-3-2-0--------0----0-2-0---------------------------------------
D------------3-2-3-----3--------3-2-0-2-3-------------------------
A------------------------------------------------------------------------
E-------------------------------------------------------------------------

       G       A        Bm
E---------------------------------------------------------------------
B---------------------------------------------------------------------
G--0-2-3-2-0--------0-------------------------------------------------
D------------3-2-3----2-0--------------------------------------------
A------------------------------------------------------------------------
E-------------------------------------------------------------------------

ESTROFA (capo en el 3er traste):
      G              A
Es verdad que por tu bien
     D             G
te daría hasta mi piel
       G          A         Bm
Y por vos me mudaría hasta Israel

        G       A
A una granja cosechar
      D        G
o tu cama calentar
         G          A            Bm
Pero en realidad ya no te quiero más

ESTRIBILLO:
        G           D             A
Ya no tengo que adorarte si no quiero
      G             D              A
Y no tengo por qué verte si hay un pero

ESTROFA:
        G         A
Porque yo soy un señor
       D         G
Tu primer admirador
       G          A            Bm
Que recuerda cada vestido que usás
        G             A
Soy el que te hacia reír
          D          G
Y hoy no puede competir
        G            A        Bm
Con tu nuevo novio pero me da igual

ESTRIBILLO:
          G               D            A
Habrá un día en que tus ojos no me hechicen
          G            D              A
Y aunque no me llames más me sienta libre

instrumental: G    A    D     G   A Bm

ESTROFA:
      G          A     D        G
El horóscopo de hoy vaticina desazón
       G              A         BmAunque ya no sos la dueña de mi amor
      G         A
Arruinaste mi ilusión
      D       G
Pero no mi corazón
       G             A          Bm
Porque ya no sos la dueña de mi amor..

linda para tocar el punteo con ukelele...
Dedicada a mi amiga fanática de Los campos y de Las taradas,
Bárbara Lopardo.

More chords by Alvy, Nacho y Rubin: