Alvvays - Saved By A Waif Guitar Chords

Alvvays

art pop, chillwave, folk-pop, indie pop

Chords: E, A, B, G#, Abm7, C#m, F#
in The Outer Space live version, the B he plays in intro part is actually something like 004440

[Intro] 
E A B G# Abm7 C#m G#

e|--4-----4-----------------| (x3)
B|-----5-----4---5---7------|
G|--------------------------|
D|--------------------------|
A|--------------------------|
E|--------------------------|

[Verse]
E           F#                  A
On Saturday in the park didn't think you fell that hard
E             B                 A           E
Woke up again, woke up and you wanted a new start

e|--------------------------|
B|--5--0--4--2--2h4p2--0----|
G|--------------------------|
D|--------------------------|
A|--------------------------|
E|--------------------------|

e|--4--0--------------------|
B|--------4--2--2h4p2--0----|
G|--------------------------|
D|--------------------------|
A|--------------------------|
E|--------------------------|

E           F#                 A
On Saturday in the park didn't think you fell that hard
E          B                      A
Oh Adrien, The silver maple never saw you coming
F#             A    G#             F#   G#             A        E
Stay where you are, stay where you are, stay where you are, and no one gets hurt

[Chorus]
E                 F#                  A
You cut your hair and you look like a little boy
(You cut your hair)
E                     F#           A
You climbed the stairs so high you can't come down from there
(You cut your hair)
E                                       F#      A
Said you wanted to get it together but you don't
(You cut your hair)
E                                       F#      A
Said you wanted to get it together but you won't
(You cut your hair)
B                               A
Say something, waste something, change your life
B                                A
Take something, break something, make your flight
B
Say something, anything
A                              
Mommy wants you to be a doctor so she can tell your friends you're like your father
E            B                                A                                        E
And if it’s all for the sake of conversation, then maybe you should try a new vocation
B                        A
Saved by a waif and the weight of your wayfarers

[Bridge]
e|--7--4--5--4--7--7--4--5--4--5--5--5--4--2--0------------|
B|------------------------------------------------0--2--0--|
G|---------------------------------------------------------|  [x2]
D|---------------------------------------------------------|
A|---------------------------------------------------------|
E|---------------------------------------------------------|

[Chorus]
E                 F#                  A
You cut your hair and you look like a little boy
(You cut your hair)
E                      F#               A
You climbed the stairs so high that you can't come down from there
(You cut your hair)
E                                       F#       A
Said you wanted to get it together but you don't
(You cut your hair)
E                                       F#       A
Said you wanted to get it together but you won't
(You cut your hair)
B                       A                        E
Saved by a waif and the weight of your wayfarers



************************************

| h  Hammer-on
| p  Pull-off
| Momma wants you to be a doctor so she can tell your friends and take your father 
| Oh Adrien, give up and you wanted a dog 
| On Saturday in the park and you think you felt it all 
| Safe on the ways on the ways on the weather 
 you tell your mom to take forever 

************************************

More chords by Alvvays: