Alvi Khan - Tomar Jonno Guitar Chords

Chords: Bm, G, D, A, B
[Verse]
Bm        G            D        A
Tomay chara hashar cheye to tomar pashe kadbo
Bm        G            D           A
Tomar ekti hashir jonno puro jibon opekkha korbo
Bm        G        D           A
Tomar dike takiye shara rat par kore dite parbo
Bm        G              D             A
Gopone tumi mon kharap korle tomar jonno ami kadbo


[Chorus]
G             A
Jani chirokal royei jabo tomar kache ditiyo
G                 A
Jani bhule jabe e gaan phele debe e chitio


[Verse]
Bm         G            D             A
Tomar pashe thakle jeno shopner duniyay ami hatchi
Bm         G            D               A
Tomar hatta dhorle jeno kono dur shomudro pare ghurchi
Bm      G            D           A
Kolponay megher moddhe tomakei to ami aj khujchi
Bm        G          D            A
Shohor jokhon gobhir ghume chader aloy tomar chobi ghatchi


[Chorus]
G             A
Jani chirokal royei jabo tomar kache ditiyo
G                 A
Jani bhule jabe e gaan phele debe e chitio


[Solo]
Bm G D B (x4)

e|------------------------------------------------------------|
B|------------------------------------------------------------|
G|--7--4------------------------------------------------------|
D|--------7--4--7-7-7---------------------------4-------------|
A|---------------------5-5-5--7-7-7--5-5-5--7-7---------------|
E|------------------------------------------------------------|

e|------------------------------------------------------------|
B|------------------------------------------------------------|
G|------------------------------------------------------------|
D|-------------------4--5-4--5-4--5-4-------------------------|
A|--5--7--5--7--5--7------------------7-5-4-----4--5----------|
E|-------------------------------------------7--------5-------|

e|------------------------------------------------------------|
B|------------------------------------------------------------|
G|------------------------------------------------------------|
D|--7-7-7---------------------------4--------------4----------|
A|---------5-5-5--7-7-7--5-5-5--7-7-------4--5-------7-5-7-7--|
E|-------------------------------------7--------5-------------|


[Verse]
Bm        G       D           A
Brishti namle tomar sriti khuje berai brishtir photay
Bm        G        D         A
Tumi ki amay mone koro e megh dhaka dintay
Bm        G        D        A
Ondhokar akashtao jeno protichchobi amar montar
Bm          G        D        A
Chokh dutow to bhije ashe shob mishe jay brishtir photay


[Chorus]
G             A
Jani chirokal royei jabo tomar kache ditiyo
G                 A
Jani bhule jabe e gaan phele debe e chitio

More chords by Alvi Khan: