Alvaro Torres - Te Dejo Libre Guitar Chords

Alvaro Torres

bolero, latin, latin pop

Song versions: 1 2
Chords: C, F, G, Em, Am, Dm
Intro

E |-------------------10/12-10-10-8-7-8-----------|
B |------5--6/8-7-8-9-----------------------------|
G |-5/7-------------------------------------------|
D |-----------------------------------------------|
A |-----------------------------------------------|
E |-----------------------------------------------|

E |------7-8/10-8------------------7-8------------|
B |-8-10----------------------8/10----------------|
G |---------------10-10-9-10------------9-9-7-9---|
D |-----------------------------------------------|
A |-----------------------------------------------|
E |-----------------------------------------------|

E |-----------------------------------------------|
B |-----------8-10--------------------------------|
G |-7-s-9-10---------------------7-s-10-9-10-7----|
D |-------------------10-10-9-10------------------|
A |-----------------------------------------------|
E |-----------------------------------------------|


C               F              G     F-G
Querido amor, con todo lo que duele
C               F              G
decir adios a lo que mas se quiere
C             Em (G)        Am
me alejaré de ti aunque me muera
F                            G
porque yo creo que eso es lo que deseas

C               F              G     F-G
No quiero mas sentirme mal querido
C               F              G
pidiendo amor como cualquier mendigo
C              Em (G)          Am
Bastante he soportado tus desprecios
F                            G
tu altanería y el desgano de tus besos


Coro

Dm                           G
Te dejo libre de hoy en adelante
C                                   Am
aunque enloquezca en el intento de olvidarte
F                                   Am
no estoy de mas en este mundo, ni soy un perro vagabundo
F                                 G
y encontraré en la vida alguien que me ame
Dm                           G
Te dejo libre ya de mi presencia,
C                               Am
llevo en el alma la amargura y la tristeza
F                               Am
de haber amado sin medida a un maniquí de fantasía
F                                G
sin corazón  sin alma igual que una piedra


C             F           G       F-G
Querido amor tu alma fría y dura
C               F             G
no sabe ni sabrá lo que es ternura
C             Em             Am
y antes de morir a manos tuyas
F                              G
renuncio a ti y espero no buscarte nunca


Coro X 2

More chords by Alvaro Torres: