AlternativA - El Oro Brilla Guitar Chords

AlternativA

latin worship, rock cristiano

Chords: C, Dm, F, G, Am, G#, F#
Intro:   C   Dm    F   G
-------------------------------------------
-------------------------------------------
---------------------------------------2---
---------------2---5-------------2--3------
--3-3-3-3-3-5---------5-5-5-5-5------------
-------------------------------------------

-------------------------------------------
-----------------------3-------------------
----------------2--5-----------------------
--3-3-3-3-3-5------------------------------
-------------------------------------------
-------------------------------------------
Se repite dos veces y después hace estito antes de empezar a cantar
-------------------------------------------
-------------------------------------------
-------------------------------------------
--5-5-5-3-5--------------------------------
-------------------------------------------
-------------------------------------------

    C                     Dm
De bella apariencia y de lindas palabras
    F                G
El siempre solía elegir
             C                 Dm
Jugaba a un juego de nunca acabar
       F             G
Cuyas reglas sabía cumplir

          C               Dm
Pensó que era la oportunidad
           F              G
Para entregar todo su corazón
       C           Dm
Y planear toda su vida
        F             G
Y hasta una familia formar
     Am           G#
Pero ella no lo quiso así
       G                 F#
De su misma medicina le dio
       F
Destrozando su corazón
    Dm              G
Rompiendo lo que logró
Coro:

C   Dm           F       G
No todo lo que brilla es oro
    C      Dm          F      G
No todo el oro tiene que brillar

Se le acabaron las fuerzas
De luchar, luchar y luchar
Pero yo te digo mi amigo
Que con Jesús podes encontrar

La razón de existir, la pasión de vivir
La voluntad de poder seguir
El amor sincero que te arma
Que te arma todo tu interior

----------------8--7---------------------------------------
------5--8-65--------65----13--13--13--13--12--10-12/13--
-4/5-------------------------12--12--12--12--10---9--------
-----------------------------------------------------------
-----------------------------------------------------------
-----------------------------------------------------------

More chords by AlternativA: