Alt-J - Tessellate Guitar Chords

Alt-J

indie rock

Song versions: 1 2
Chords: Em, Dsus2, G, A, E
[Intro]

E|--------------------------------------------------------------------0-----------------|
B|-----0--------0--------0--------0-----------0--------0--------0-----0-----0-----------|
G|-----0--------0--------0--------0-----------0--------0--------0-----0-----0-----------|
D|-----2--------2--------2--------2-----2-----2--------2--------2-----------2-----2-----|
A|-----2--------2--------2--------2-----2-----2--------2--------2-----------2-----2-----|
E|--------------------------------------0-----------------------------------------0-----|


[Verse 1]
Em            Dsus2
  Bite chunks out of me
Em                      Dsus2
  You're a shark and I'm swimming
Em                     Dsus2
  My heart still thumps as I bleed
Em                    Dsus2
  And all your friends come sniffing


[Chorus]
Em    Dsus2     G              A
  Triangles are my favourite shape
Em       Dsus2        G         A
  Three points where two lines meet
Em        Dsus2        G          A
  Toe to toe, back to back, let's go
    Em         Dsus2    G A
My love, it's very late
      Em       G   A
'Til morning comes
N.C.
Let's tessellate

[Interlude]
E|----------------------------------0--0-----------0-------|
B|----0-----------------------------3---------3------------|
G|----0--0-----------0--------------2----------------------|
D|----2---------2---------2--2-----------------------------|
A|----2----------------------------------------------------|
E|---------------------------------------------------------|

[Break]
Em   Dsus2    Em    Dsus2
Go alone, my flower
     Em      Dsus2        E  Dsus2
And keep my whole lovely you
             Em      Dsus2    Em   Dsus2
Wild green stones, alone, my lover
     Em     Dsus2  Em   Dsus2
And keep us on my heart


[Verse 2]
Em                Dsus2
  Three guns and one goes off
Em                    Dsus2
  One's empty, one's not quick enough
Em               Dsus2
  One burn, one red, one grin
Em                             Dsus2
  Search the graves while the camera spins
Em                    Dsus2
  Chunks of you will sink down to seals
Em                 Dsus2
  Blubber rich in mourning
Em                                   Dsus2
  They'll nosh you up, yes, they'll nosh the love away
                  Em                  Dsus2
But it's fair to say, you will still haunt me


[Chorus]
Em    Dsus2     G              A
  Triangles are my favourite shape
Em       Dsus2        G         A
  Three points where two lines meet
Em        Dsus2        G          A
  Toe to toe, back to back, let's go
    Em         Dsus2    G A
My love, it's very late
      Em       G   A
'Til morning comes
N.C.
Let's tessellate

[Outro]
E|----------------------------------0--0-----------0-------|
B|----0-----------------------------3---------3------------|
G|----0--0-----------0--------------2----------------------|
D|----2---------2---------2--2-----------------------------|
A|----2----------------------------------------------------|
E|---------------------------------------------------------|

More chords by Alt-J: