Alpinestars - Snow Patrol Part 2 Guitar Chords

Chords: C#, Bbm, F#, Eb, Fm
Song: Snow Patrol, Pt. 2
Band: Alpinestars
Album: White Noise
Year: 2002
Tabber: beranger80@hotmail.com



Intro (0:11)

C# Bbm



Intro (0:27)

   Bbm
e-----------------------------|
b-----------------------------|
g-------1---------------------|
d--3-1----1-3------------1----|
a-----------------1-3-4----1--|
e-----------------------------| x2

   F#
e-----------------------------|
b-----------------------------|
g-------1---------------------|
d--3-1----1-3------------1----|
a-----------------1-3-4----1--|
e-----------------------------|

    Eb
e-----------------------------|
b-----------------------------|
g-------1---------------------|
d--3-1----1-3------------1----|
a-----------------1-3-4----1--|
e-----------------------------|



Verse (1:00)

Bbm
Good girl, I want your freeze
F#                     Eb
Bad girl, your expertise
Bbm
Good girl, I want your freeze
F#                     Eb
Bad girl, your expertise



Prechorus (1:33)

Fm                  F#
In the frozen times, wasted in our minds



Solo (1:40)

    Bbm
e-----------18----------18-----------|
b--18-19-18----18-19-18----18-19-18--|
g------------------------------------|
d------------------------------------|
a------------------------------------|
e------------------------------------| x2

F#                                   Eb
e---------------------------------|---------------------------------|
b--18-19-18-------18-19-18--------|--18-19-18-------18-19-18--------|
g-----------18-------------18-----|-----------18-------------18-----|
d--------------20-------------20--|--------------20-------------20--|
a---------------------------------|---------------------------------|
e---------------------------------|---------------------------------|



Verse (1:56)

Bbm
Good girl, you played a game
F#                         Eb
Bad girl, never twice the same
Bbm
Good girl, you played a game
F#                          Eb
Bad girl, never twice the same



Prechorus (2:29)

     Fm                 F#
Many times before and forever more



Chorus (2:37)
Bbm
Snow patrol, save your soul
F#             Eb
Feel the cold taking hold
Bbm
Snow patrol, save your soul
F#             Eb
Feel the cold taking hold



Bridge (3:10)

    Bbm
e-----------18----------18-----------|
b--18-19-18----18-19-18----18-19-18--|
g------------------------------------|
d------------------------------------|
a------------------------------------|
e------------------------------------| x2

F#                                   Eb
e---------------------------------|---------------------------------|
b--18-19-18-------18-19-18--------|--18-19-18-------18-19-18--------|
g-----------18-------------18-----|-----------18-------------18-----|
d--------------20-------------20--|--------------20-------------20--|
a---------------------------------|---------------------------------|
e---------------------------------|---------------------------------|



Prechorus (3:40)
Fm                  F#
In the frozen times, wasted in our minds
F#



Bridge (3:53)

Bbm Bbm F# Eb



Bridge (4:10)

   Bbm
e-----------------------------|
b-----------------------------|
g-------1---------------------|
d--3-1----1-3------------1----|
a-----------------1-3-4----1--|
e-----------------------------| x2

   F#
e-----------------------------|
b-----------------------------|
g-------1---------------------|
d--3-1----1-3------------1----|
a-----------------1-3-4----1--|
e-----------------------------|

    Eb
e-----------------------------|
b-----------------------------|
g-------1---------------------|
d--3-1----1-3------------1----|
a-----------------1-3-4----1--|
e-----------------------------|



Solo (4:26)

e--------------|----------------|
b--------------|----------------|
g--------------|----------------|
d--3-3-1-3-----|-------------1--| x3
a-----------1--|----1-1---1-----|
e--------------|--4-----4-------|

e--------------|
b--------------|
g--------------|
d--3-3-1-3-----| x2
a-----------1--|
e--------------|



Chorus (4:41)

Bbm
Snow patrol, save your soul
F#             Eb
Feel the cold taking hold
Bbm
Snow patrol, save your soul
F#             Eb
Feel the cold taking hold



Outro (5:14)

Bbm

More chords by Alpinestars: