Alon - Sorpresa Guitar Chords

Chords: C, Em, Am, G, F, C#, Fm, Bbm, F#, G#
SORPRESA
By Alon Band


INTRO:          CEmAmG (2x)

(A simple INTRO tab, while playing your Guitar alone)
    C          Em           Am          G
e|------0----------3-0------0---1-------0-1-0-----|
B|--3-----3--3-3-------3----1-2---1-----1-1-1-3-1-|
G|--0-0----0-----0-------0----------(2)-----------|
D|------------------------------------------------|
A|--3----------2---2-2------0---0-------0-0-0-0-0-|
E|------------------------------------------------|

    C          Em           Am          G
e|------0----------3-0------0---1-0-1-1/3----------|
B|--3-----3--3-3-------3----1-----1----------------|
G|--0-0----0-----0-------0----2--------------------|
D|-------------------------------------------------|
A|--3----------2---2-2------0---0-0---0------------|
E|-------------------------------------------------|


VERSE 1:
  C                Em           Am              G
‘Di ka na ba ngingiti, kahit konti man lang, kahit sandali
 C                         Em           Am
Sana’y ‘wag ka nang magdamdam, pagtatampo’y iwan
     G
‘Di na uulitin


REFRAIN:
 Am                G            F              G
Kung ako’y nagkamali, ‘di ko sadya, sorry na nga…


CHORUS:
           C                   Em      Am                 G
‘Di bale ako sayo’y merong sorpresa, ipapasyal kita sa Luneta
 F                  C     F               G
Kahit na konti ang pera, mapasaya lang kita
         C                    Em     Am                 G
Babawi ako sayo sa aking sorpresa, kakain tayo ng bola-bola
    F                   C     F                    G 
Sorbetes, ok lang kasi mura. Sana kung hindi ka galit
            CEmAm - G
Susubuan kita..


VERSE 2:
 C                 Em             Am          G
Dahil nagselos ka lang, ‘di ka namamansin, bakit ka ganyan?
C                     Em             Am              G
Ayaw kong ikaw ang galit, kung nasaktan kita’y di sadya

(Repeat CHORUS)


INSTRUMENTAL:   CEmAmG, FCFG

Do REFRAIN, then CHORUS transposing half step (C#)

            C# - Fm - Bbm
Susubuan kita…
 F#                   G# (C# - FmBbmG#)
Sana’y hindi ka na galit.
                   - C#
“Will you marry me?”

(this is my first submission here. hope you guys enjoy it! thanks! -jeam.labeam@gmail.com)

More chords by Alon: