Alok - Big Jet Plane Guitar Chords

Alok

electro house

Chords: E, C#m, G#m
Play the chords as power chords
The riff repeats itself throughout the entire song


[Intro]
E C#m G#m (2x)

e|------------------------------|
B|--12-9-12-------12-9-12-------|
G|----------8--9----------11--9-|
D|------------------------------|
A|------------------------------|
E|------------------------------|

[Verse 1]
E
 Hello, mister
C#m                 G#m
 Pleased to meet you
E
 I wanna hold her
C#m               G#m
 I wanna kiss her
E
 She smelled of daisies
C#m                     G#m
 She smelled of daisies
E
 She drives me crazy
C#m                 G#m
 She drives me crazy

E                    C#m                G#m
 Gonna take her for a ride on a big jet plane
E                    C#m                G#m
 Gonna take her for a ride on a big jet plane

E C#m G#m (2x)

e|------------------------------|
B|--12-9-12-------12-9-12-------|
G|----------8--9----------11--9-|
D|------------------------------|
A|------------------------------|
E|------------------------------|

[Verse 2]
E
 Be my lover
C#m           G#m
 My lady river
E
 Can I take you?
C#m               G#m
 Take you higher?

          E C#m
 Hey, hey
G#m
 Hey, hey
         E
 Hey, hey

[Pre-Chorus]

 Gonna hold you
C#m                       G#m
 Gonna kiss you in my arms
E          C#m       G#m
 Gonna take you away from home

[Chorus]
E                    C#m                G#m
 Gonna take her for a ride on a big jet plane
E                    C#m                G#m
 Gonna take her for a ride on a big jet plane

E C#m G#m
 Hey, hey
E C#m G#m
 Hey, hey
E C#m G#m
 Hey, hey
E C#m G#m
 Hey, hey
E C#m G#m
 Hey, hey

[Chorus]
E                    C#m                G#m
 Gonna take her for a ride on a big jet plane
E                    C#m                G#m
 Gonna take her for a ride on a big jet plane

E C#m G#m (2x)

e|------------------------------|
B|--12-9-12-------12-9-12-------|
G|----------8--9----------11--9-|
D|------------------------------|
A|------------------------------|
E|------------------------------|

More chords by Alok: