Almir Sater - Tocando Em Frente Guitar Chords

Almir Sater

folk brasileiro, forro, mpb, sertanejo

Song versions: 1 2 3
Chords: G, F9, C, Dm
Tom: C

(passagem 1 - violão 1)

E|------------------|
B|------------------|
G|---0---0---0------|
D|-----0---2--------|
A|-3----------------|
E|------------------|


G                              F9
 Ando devagar porque já tive pressa
                                    C
 E levo esse sorriso, porque já chorei demais
G                                           F9
 Hoje me sinto mais forte, mais feliz quem sabe
                                    C                G
 Eu só levo a certeza de que muito pouco eu sei, eu nada sei

F9            Dm             F9
 Conhecer as manhas e as manhãs,
              Dm             C
 O sabor das massas e das maçãs,
F9             Dm               F9
 É preciso o amor pra poder pulsar,
           Dm               F9
é preciso paz pra poder seguir,
              C
é preciso a chuva para florir.

 G                                    F9
Penso que cumprir a vida seja simplesmente
                                        C
Compreender a marcha, e ir tocando em frente
 G                                   F9
Como um velho boiadeiro levando a boiada,
                                      C
eu vou tocando os dias pela longa estrada eu vou,
       G
de estrada eu sou

F9            Dm             F9
 Conhecer as manhas e as manhãs,
              Dm             C
 O sabor das massas e das maçãs,
F9             Dm               F9
 É preciso o amor pra poder pulsar,
           Dm               F9
é preciso paz pra poder seguir,
              C
é preciso a chuva para florir.

 G                                 F9
Todo mundo ama um dia todo mundo chora,
                                      C
Um dia a gente chega, no outro vai embora
G                                F9
 Cada um de nós compõe a sua história,
                                     C
 E cada ser em si, carrega o dom de ser capaz,
    G
 E ser feliz

F9            Dm             F9
 Conhecer as manhas e as manhãs,
              Dm             C
 O sabor das massas e das maçãs,
F9             Dm               F9
 É preciso o amor pra poder pulsar,
           Dm               F9
é preciso paz pra poder seguir,
              C
é preciso a chuva para florir.

G                              F9
 Ando devagar porque já tive pressa
                                   C
E levo esse sorriso, porque já chorei demais
G                                F9
 Cada um de nós compõe a sua história,
                                     C
 E cada ser em si, carrega o dom de ser capaz,
    G
 E ser feliz

(passagem final - violão 1)

E|-------------------|
B|-------------------|
G|---0---0---0-------|
D|-------------------|
A|-3---2---0---------|
E|-------------------|


(tabs e dicas - violão 2)

(solo primeira parte)

(parte 1)

-0-1-3-7--7---------7---------------------|
-1-3-5-8----8-----8---8-------------------|
--------------7-7-------7-----------------|
------------------------------------------|
------------------------------------------|
------------------------------------------|



-----5----------5-------------------------|
---6---6------6---6-----------------------|
-5-------5--5-------5---------------------|
------------------------------------------|
------------------------------------------|
------------------------------------------|


(parte 2)

-----0-0-0--------------------------------|
---1---1-1--------------------------------|
-0----------------------------------------|
------------------------------------------|
------------------------------------------|


(solo refrão)

(parte 1)

-----1---------1---------1---------1------|
---1---1-----3---3-----1---1-----3---3----|
-2-------2-2-------2-2-------2-2-------2--|
------------------------------------------|
------------------------------------------|
------------------------------------------|


(parte 2)

-----0-0--0-0-1-1-1/3-3-0-----------------|
---1---1--1-1-3-3-3/5-5-------------------|
-0----------------------------------------|
------------------------------------------|
------------------------------------------|
------------------------------------------|


(parte 3)

-----0----------0-------------------------|
---1---1------1---1-----------------------|
-0-------0--0-------0---------------------|
------------------------------------------|
------------------------------------------|
------------------------------------------|
------------------------------------------|


(parte 3)

-----0-0--1-1/3-3-3-3-----3---------3-----|
---1---1--3-3/5-5-5-5---3---3-----3---3---|
-0--------------------4-------5-5-------5-|
------------------------------------------|
------------------------------------------|
------------------------------------------|

More chords by Almir Sater: