Almir Sater - Chalana Guitar Chords

Almir Sater

folk brasileiro, forro, mpb, sertanejo

Chords: D, A7, G
Tom: D
                
Intro:


E|-9-/10~---9~-----5~\---------------------|
B|-10/12~--10~-----7~\---------------------|
G|-----------------------------------------|
D|--------------0--------------------------|
A|-----------------------------------------|
E|-----------------------------------------|


Primeira Parte:
    D
Lá vai uma chalana
     A7(13)   D
Bem longe se vai
Navegando no remanso
             A7
Do rio Paraguai

Refrão:
G
Oh! Chalana sem querer
 D
Tu aumentas minha dor
 A7
Nessas águas tão serenas
                  D
Vai levando meu amor
G
Oh! Chalana sem querer
 D
Tu aumentas minha dor
 A7(13)
Nessas águas tão serenas
                  D
Vai levando meu amor

Segunda Parte:
             
E assim ela se foi
                    A7(13)
Nem de mim se despediu
  G
A   chalana vai sumindo
    A7          D
Na curva lá do rio

E se ela vai magoada
                      A7
Eu bem sei que tem razão

Fui ingrato
                         D
Eu feri o seu meigo coração

Refrão:
G
Oh! Chalana sem querer
 D
Tu aumentas minha dor
 A7(13)
Nessas águas tão serenas
                  D
Vai levando meu amor
G
Oh! Chalana sem querer
 D
Tu aumentas minha dor
 A7
Nessas águas tão serenas
                  D
Vai levando meu amor

Solo:

(Primeira Parte)


E|-2-2--0-2-3-3/5-5~--5-5/9-~--5-3--3\2~-------------|
B|-3-3--2-3-5-5/7-7~--7-7/10~--7-5--5\3~-------------|
G|---------------------------------------------------|
D|---------------------------------------------------|
A|---------------------------------------------------|
E|---------------------------------------------------|



E|-2-0-2-0--2-3-3/5-5~--5--5\3--3\2--2--0-----5~-----|
B|-3-3-3-3--3-5-5/7-7~--7--7\5--5\3--3--2------------|
G|-----------------------------------------6~--------|
D|---------------------------------------------------|
A|---------------------------------------------------|
E|---------------------------------------------------|


(Refrão)

E|-5/7-7-7-7-7--5-7---5-5-5--3-2-3-3/5---------------|
B|-7/8-8-8-8-8--7-8---7-7-7--5-3-5-5/7---------------|
G|---------------------------------------------------|
D|---------------------------------------------------|
A|---------------------------------------------------|
E|---------------------------------------------------|



E|-0-0-0-0--3/5--9---7-7\5--5~--3-3\2--2~------------|
B|-2-2-2-2--5/7--10--8-8\7--7~--5-5\3--3~------------|
G|---------------------------------------------------|
D|---------------------------------------------------|
A|---------------------------------------------------|
E|---------------------------------------------------|

More chords by Almir Sater: