Alligatoah - Vor Gericht Guitar Chords

Alligatoah

deep german hip hop, german hip hop

Song versions: 1 2 3 4
Chords: F#m, E, A, C#, D, C#m
Alligatoah - Vor Gericht
Album: Musik ist keine Lösung - 27. November ´15

    F#m                 E           A          C#
Der Abschied hält nicht ewig, Baby, sorg dich nicht
    D                 E             F#m
Wir sehn uns vor, wir sehn uns vor Gericht

3,4

[Bridge/Solo]
 F#m
E|------------------------|------------------------|
B|----------10--9--10--9--|----------10--9--10--9--|
G|------11----------------|------11----------------|
D|--11--------------------|--11--------------------|
A|------------------------|------------------------|
E|------------------------|------------------------|

 D                         C#m
E|---------------10------|--------7--9------------|
B|-----------10------10--|-----9------------------|
G|-------11--------------|--9---------------------|
D|-----------------------|------------------------|
A|-----------------------|------------------------|
E|-----------------------|------------------------|

4x

   F#m
Komm doch her, Einzelkampf, sei ein Mann
   D                            C#m
Aber leb mit dem Konter: Ich zeig dich an!
  F#m
31er-Style: Hab ich ein schlechten Tag
     D                                C#m
Wird jeder der mir in die Quere kommt wegverklagt
  F#m
Ich bin Sportsmann, doch wenn du mich beim Handball toppst
        D                         C#m
Kriegst du ganz salopp von meinem Anwalt Post
  F#m
Ist es kälter als in den Wetterberichten
   D                          C#m
Komm ich mit rechtlichen Schritten

 F#m
Es ist ok, babe, dass dich der Zeitungsjunge fickt  
                            
[Bridge/Solo - statt Akkorde]
   D                            C#m
Wenn ich bei den Bullen snitch steht es Eins zu Null für mich
  F#m
Ob ich dich je geliebt hab, fragst du mich
  D                            C#m
Tja, ohne meinen Anwalt sag ich nix

    F#m                 E           A          C#
Der Abschied hält nicht ewig, Baby, sorg dich nicht
     D                E            F#m     C#
Wir sehn uns vor, wir sehn uns vor Gericht
 F#m                 E           A       C#
Gewalt ist zum Zerstören nicht erforderlich
   D                   E
Wir sehn uns vor, wir sehn uns vor
   D                   E
Wir sehn uns vor, wir sehn uns vor
   D                   E              A
Wir sehn uns vor, wir sehn uns vor Gericht

[Bridge/Solo]
 F#m
E|------------------------|------------------------|
B|----------10--9--10--9--|----------10--9--10--9--|
G|------11----------------|------11----------------|
D|--11--------------------|--11--------------------|
A|------------------------|------------------------|
E|------------------------|------------------------|

 D                         C#m
E|---------------10------|--------7--9------------|
B|-----------10------10--|-----9------------------|
G|-------11--------------|--9---------------------|
D|-----------------------|------------------------|
A|-----------------------|------------------------|
E|-----------------------|------------------------|
2x

  F#m
Schon in der Schule ließ ich mich lächelnd verdreschen
  D                            C#m
Um danach in aller Ruhe beim Direktor zu petzen
  F#m
Ich hab schon damals begriffen: Ich kann mit staatlichen Mitteln
    D                           C#m
Rivalen vernichten – wie bei Indianergeschichten

   F#m
Meine Eltern sagten: Ich soll nicht mit Pornoheften spielen    

[Bridge/Solo - statt Akkorde]
     D                           C#m
Ich verklagte sie und ließ ihnen das Sorgerecht entziehen
   F#m
Wenn es ein Wortgefecht mit meinem Vorgesetzten gibt
    D                     C#m
Beginnt sofort ein Zettelkrieg
   F#m
Ich hab' Benzin getrunken und auf die Straße gekackt
     D                            C#m
Die Tankstelle zahlt mir heute Schadensersatz  (was?)
   F#m
Wo sind unsere Kinder, fragst du mich
     D                           C#m
Du weißt: ohne meinen Anwalt sag' ich nix!

   F#m             E           A          C#
Der Abschied hält nicht ewig, Baby, sorg dich nicht
   F#m             E                F#m     C#
Wir sehn uns vor, wir sehn uns vor Gericht
   F#m             E           A      C#
Gewalt ist zum Zerstören nicht erforderlich
   D                   E
Wir sehn uns vor, wir sehn uns vor
   D                   E
Wir sehn uns vor, wir sehn uns vor
   D                   E              A
Wir sehn uns vor, wir sehn uns vor Gericht

[Bridge/Solo]
 F#m
E|------------------------|------------------------|
B|----------10--9--10--9--|----------10--9--10--9--|
G|------11----------------|------11----------------|
D|--11--------------------|--11--------------------|
A|------------------------|------------------------|
E|------------------------|------------------------|

 D                         C#m
E|---------------10------|--------7--9------------|
B|-----------10------10--|-----9------------------|
G|-------11--------------|--9---------------------|
D|-----------------------|------------------------|
A|-----------------------|------------------------|
E|-----------------------|------------------------|
2x

(Achtung, Achtung, Die Sicherheitskräfte haben die Kontrolle verloren)

   F#m
Ich wollte grad n' Raubkopierer für die Todesstrafe zwangsmelden
   D                             C#m
Doch erreichte keinen von meinen hochbezahlten Anwälten
  F#m
Die Stadt sieht komisch aus, da les' ich aufm Flugblattzettel
    D                             C#m
Das System ist kollabiert – Es gibt nur noch Naturgesetze
  F#m
Mist! Jetzt tun sich die Nachbarn zusammen
    D                             C#m
Jetzt muss ich leben mit Menschen, die ich nicht abmahnen kann
  F#m
In der Gruppe überleb ich immerhin
     D                            C#m
Ob ich Empathie habe? – Ne, ich bin geimpft

 F#m
Was? Ja, ich war der, der euch verurteilte

Bridge/Solo - statt Akkorde]
  D                            C#m
Guckt doch nicht so furchteinflößend – schöne Wurfpfeile!
  F#m
Kommt schon, ich hab die Regeln nicht gemacht
    D                           C#m
nur ausgelegt wie’s mir passt ohne den Nächstenlieben-Quatsch

Habt Erbarmen!
  F#m
Ich kann mich nicht prügeln oder Messer zücken
   D                            C#m
Ich kenne als Versteck zum Flüchten nur Gesetzeslücken
  F#m
Der nasse Fleck in meinem Schritt zeigt:
  D                       C#m
Ohne meinen Anwalt bin ich nix!

   F#m                  E           A         C#
Der Abschied hält nicht ewig, Baby, sorg dich nicht
   D               E                F#m     C#
Wir sehn uns vor, wir sehn uns vor Gericht
    D              E           A     C#
Gewalt ist zum Zerstören nicht erforderlich
    D              E
Wir sehn uns vor, wir sehn uns vor
    D              E
Wir sehn uns vor, wir sehn uns vor
    D              E                A
Wir sehn uns vor, wir sehn uns vor Gericht

    D              E
Wir sehn uns vor, wir sehn uns vor
    D              E
Wir sehn uns vor, wir sehn uns vor
    D              E                A
Wir sehn uns vor, wir sehn uns vor Gericht

---ENDE---

More chords by Alligatoah: