Alle Farben - She Moves Guitar Chords

Alle Farben

deep euro house, tropical house

Song versions: 1 2 3
Chords: Bm, Em, D, C, G
She Moves - Alle Farben

### tabbed by Felix Thalmann ###

[Intro]
   Bm      Em      D       C       Bm      Em      D       D
e|-----------------------------------------------------------------|
B|---3---3---8---8---7---7---5---5---3---3---8---8---7---7---7---7-|
G|---4---4---9---9---7---7---5---5---4---4---9---9---7---7---7---7-|
D|---4---4---9---9---7---7---5---5---4---4---9---9---7---7---7---7-|
A|-2---2---7---7---5---5---3---3---2---2---7---7---5---5---5---5---|
E|-----------------------------------------------------------------|

[Verse]
Bm Em D C
(I play the Verse like the Intro but 4times per chord.)

[Refrain]
   G  Bm Em D   
e|-1--2--0--2-|  
B|-0--3--0--3-|
G|-0--4--0--2-|
D|-0--4--2--0-|
A|-2--2--2----|
E|-3-----0----|
(I play the standard chords)

[Bridge]
G Bm | G Bm | G Bm | G Bm D
(I play the standard chords like in the Refrain)

---------------------------------------------------------------------------

[Intro]
   Bm      Em      D       C       Bm      Em      D       D
e|-----------------------------------------------------------------|
B|---3---3---8---8---7---7---5---5---3---3---8---8---7---7---7---7-|
G|---4---4---9---9---7---7---5---5---4---4---9---9---7---7---7---7-|
D|---4---4---9---9---7---7---5---5---4---4---9---9---7---7---7---7-|
A|-2---2---7---7---5---5---3---3---2---2---7---7---5---5---5---5---|
E|-----------------------------------------------------------------|

[Verse]
Bm               Em         D                             C
  Far away, far away in the land where the sun will never rise
Bm               Em         D                    C
  Far away, far away in the place with marmalade skies
Bm               Em         D                                C
  Far away, far away in the land where the sun will hide its eyes
Bm               Em         D                          C
  Far away, far away in the place with marmalade skies

[Refrain]
G             Bm
All alone she moves
  Em                      D
Into a broken paradise surrounded by the colored lights
G             Bm
On and on she moves
  Em                    D
Into a paradise without day and without night

[Intro]
   Bm      Em      D       C       Bm      Em      D       D
e|-----------------------------------------------------------------|
B|---3---3---8---8---7---7---5---5---3---3---8---8---7---7---7---7-|
G|---4---4---9---9---7---7---5---5---4---4---9---9---7---7---7---7-|
D|---4---4---9---9---7---7---5---5---4---4---9---9---7---7---7---7-|
A|-2---2---7---7---5---5---3---3---2---2---7---7---5---5---5---5---|
E|-----------------------------------------------------------------|

[Verse]
Bm               Em         D                             C
  Far away, far away in the land where the sun will never rise
Bm               Em         D                    C
  Far away, far away in the place with marmalade skies
Bm                Em D                      C
  Carry on, carry on  deeper into the rabbit hole
Bm                Em   D                                    C
  Carry on, carry on until you reach the hallway made of gold

[Refrain]
G             Bm
All alone she moves
  Em                      D
Into a broken paradise surrounded by the colored lights
G             Bm
On and on she moves
  Em                    D
Into a paradise without day and without night

[Bridge]
G       Bm
Aah, Aaahaaah
G       Bm
Aah, Aaahaaah
G       Bm
Aah, Aaahaaah
G       Bm     D
Aah, Aaahaaahaaah

[Refrain] x2
G             Bm
All alone she moves
  Em                      D
Into a broken paradise surrounded by the colored lights
G             Bm
On and on she moves
  Em                    D
Into a paradise without day and without night

More chords by Alle Farben: