Allan Edwall - Kom Guitar Chords

Allan Edwall

classic swedish pop, folkmusik, swedish jazz

Song versions: 1 2
Chords: Am, Dm6/A, E7/A, C, E7
Allan Edwall - Kom


This is another rather simple song to play on guitar.  If you wish to play the
violin parts, you can find the tabs at the bottom of this document.

I've used the version on the album "Allans allra bästa", where it's actually
played in G minor, whereas this tab is in A minor.  The reason why I chose to
do so is that the chords become much easier to play on a guitar when played in
A minor instead.  If this infuriates you, feel free to use UG's chord
transposition tool.


[Violin pattern 1]

[Violin pattern 2]


[Verse 1]

Am               Dm6/A
Kom ska vi tycka om varandra
E7/A                  Am
Kom så får du kärligt kyssa mig
Am               Dm6/A
Så som du plägar med dom andra
E7/A                 Am
När dom brukar hälsa på hos dig

   C                       E7
För det är rent på tok vad människan är snål
        Am                E7
Med att dela med sig utav sympati
  C                     E7
I denna värld som jagar amorösa mål
       Am                 E7   Am
Medans kärlekslösa skaror drar förbi

Am               Dm6/A
Kom ska vi tycka om varandra
E7/A                   Am
Kom så får jag kärligt kyssa dig
Am                     Dm6/A
Strunt i dig själv och tänk på andra
    E7/A              Am
Och detta gäller inte minst om mig


[Violin pattern 2]


    C                      E7
Ja, det är jämt på tok för lite utav det
       Am                     E7
Som vi människor har skäl att glädjas åt
    C                   E7
Och alltför mycket utav sorger och förtret
        Am              E7     Am
Och för lite av utsäkta och förlåt

Am               Dm6/A
Kom ska vi tycka om varandra
E7/A                  Am
Kom så får du kärligt kyssa mig
Am               Dm6/A
Så som du plägar med dom andra
E7/A                 Am
När dom brukar hälsa på hos dig

[Violin pattern 1, slow down towards the end]


Tabs for Violin pattern 1 and 2
-------------------------------

[Violin pattern 1]

e-|-5p4h5--7--5-------------------|-------------------------|
B-|-------------5---------5-------|-5--6-5--------------5---|
G-|----------------5-4--------7---|---------7-5--4-5--7-----|
D-|---------------------7---------|-------------------------|
A-|-------------------------------|-------------------------|
E-|-------------------------------|-------------------------|

e-|-5p4h5--7--5-------------------|-------------------------|
B-|-------------5---------5-------|-5--6-5------------------|
G-|----------------5-4--------7---|---------7-5--4-5--4-----|
D-|---------------------7---------|---------------------7---|
A-|-------------------------------|-------------------------|
E-|-------------------------------|-------------------------|

[Violin pattern 2]

e-|-------------3----------------|---------------------------|
B-|-5-5-------5----5-5--3-3--5-3-|-5h3---------------------5-|
G-|------5-5---------------------|-----5--5-2--2-5--5-4--5---|
D-|------------------------------|---------------------------|
A-|------------------------------|---------------------------|
E-|------------------------------|---------------------------|

e-|-------------3----------------|-----------------------------|
B-|-5-5-------5----5-5--3-3--5-3-|-5h3-------------------------|
G-|------5-5---------------------|-----5--5-2--2-5--5-4h5p4----|
D-|------------------------------|-------------------------6h7-|
A-|------------------------------|-----------------------------|
E-|------------------------------|-----------------------------|

More chords by Allan Edwall: