Allah-Las - Catalina Guitar Chords

Song versions: 1 2
Chords: Em, Bm, A, G
-------------------------------------------------------------------------------
                             Catalina - Allah-Las
-------------------------------------------------------------------------------
Tabbed by:Josue Becerra Rico
E-mail:josuebecerra.7@gmail.com

Tuning:Standard

Intro(pedrum's guitar):
e|---------------------------------------------------------------------------|
B|---------------------------------------------------------------------------|
G|-------7--------------------------7----------------------------------------| x2
D|-----8---10-8-7-----------------8---10-8-----------------------------------|
A|--10------------8-7-8----7-8-10----------7-8-7-----------------------------|
E|----------------------10-----------------------8---------------------------|

Chords(capo on 2nd fret:

Intro (Miles' guitar): Em Bm Em A (x3)

Em           Bm 
Your perfect vision
Em               A 
of the life we had
Em            Bm
robs my conviction
        G                   A
that my love will bring you back
Em         Bm
But when I reach out
Em               A
you seem quite cool
Em       Bm     
still my impression
        G                A
lingers deep within your soul
in your soul...

Bridge: Em   Bm   Em   A  (x2)

Em                Bm
And when you look round
Em                  A
see me standing there
Em               Bm
I'm only wondering
       G                     A
if by chance do you still care
Em           Bm
And though I had to
Em            A
seek somebody new
Em           Bm
don't be mistaken
           G               A
I'm still dreaming about you
about you

Guitar solo:
(i'm too lazy to write it down)


Em           Bm 
Your perfect vision
Em               A 
of the life we had
Em            Bm
robs my conviction
        G                   A
that my love will bring you back
Em           Bm
And though I had to
Em            A
seek somebody new
Em              Bm
don't you dare fret girl
           G               A
I'm still dreaming about you
about you
about you
about you
about you


************************************

| /   slide up
| \   slide down
| h   hammer-on
| p   pull-off
| ~   vibrato
| +   harmonic
| x   Mute note
| b   Bend
| pb  Pre-bend
| br  Bend release
| pbr Pre-bend release
| brb Bend release bend

************************************

More chords by Allah-Las: