Allah-Las - Burning In Heaven Guitar Chords

Chords: E, D, Dsus2, A, Asus2
[Chords]

E 022100
D xx0232
Dsus2 xx230
A x02220
Asus2 x02200

On the last line of verse 1, bridge and outro:

E xx2454

[Intro]

E D A E
E D Dsus2 A Asus2
E D A E
E D Dsus2 A 

[Verse]

E              D                A          E
   I watch the sun come up each morning
E                   D                 A          E                                        
   And there's some things I'd rather do
E              D            A          E
   If you were only right beside me
E       D                A              
   Oh I know I'd make it through
E              D             A          E                                        
   I'm burning up outside of heaven
E          D             A          E                                        
   Counted all my red n' blue
E              D                 A          E                                        
   And all the ways to waste the daylight
E           D                A                                                  
   I'm just waiting here for you


[Bridge]

Guitar 1

E D A E (x3)
E D A 

Guitar 2

e|9p6------------6p3-------------------------2--0----------------------------|
B|----6--------------3----------3p2------2h3---------------------------------|
G|----------------------------------2----------------------------------------|
D|---------------------------------------------------------------------------|
A|---------------------------------------------------------------------------|
E|---------------------------------------------------------------------------|

e|9p6------------6p3-------------------------2--0------0---------------------|
B|----6--------------3----------3p2------2h3--------3------------------------|
G|----------------------------------2----------------------------------------|
D|---------------------------------------------------------------------------|
A|---------------------------------------------------------------------------|
E|---------------------------------------------------------------------------|

e|9p6------------6p3-------------------------2--0----------------------------|
B|----6--------------3----------3p2------2h3---------------------------------|
G|----------------------------------2----------------------------------------|
D|---------------------------------------------------------------------------|
A|---------------------------------------------------------------------------|
E|---------------------------------------------------------------------------|

e|9p6------------6p3-------------------------2--0----------------------------|
B|----6--------------3----------3p2------2h3---------------------------------|
G|----------------------------------2----------------------------------------|
D|---------------------------------------------------------------------------|
A|---------------------------------------------------------------------------|
E|---------------------------------------------------------------------------|


[Verse 2]

E        D                  A          E
   Now I know I've gone the wrong way
E              D                   A          E
   And all the love's been washed away
E             D               A          E
   Tomorrow's such A long way off now
E              D              A          
   Looks like another perfect day

[Outro]

Same as [Bridge] except the last line which I'm not 100% sure about



************************************

| p  Pull-off
| h  Hammer-on
 

************************************

More chords by Allah-Las: