All Time Low - If These Sheets Were The States Guitar Chords

All Time Low

pop punk, post-teen pop

Chords: Bm, C, G, D, Em, A, Am, F, F#m
[Intro]
e|---------------------------------------------------------------------------|
B|-----0---0-------0---0-------0----0--------0---0---------------------------|
G|---0---0---0---0---0---0---0----0----0---0---0----0------------------------|
D|---------------------------------------------------------------------------|
A|-2----2----2---3---3---3---------------------------------------------------|
E|-------------------------3----3----3---3----3---3--------------------------|

e|---------------------------------------------------------|
B|-----0---0-------0---0-------0----0----------------------|
G|---0---0---0---0---0---0---0----0-----0------------------|
D|-2----2---2---------------0----0-----0-------------------|
A|--------------3---3---3----------------------------------|
E|---------------------------------------------------------|

[Intro]
                                Bm    C
I'm lost in empty pillow talk again
     G                          Bm    C 
I'm lost in empty pillow talk again
D
Bm - C - G
Bm - C - D

[Verse 1]
Bm               C              G
  This bed's an island made of feather down, and I'm stuck here alone
Bm            C                            D
  With little else but memories of you, on memory foam
Bm        C              G
  Visions of a brighter love, I'd kill for one more day
Bm            C                      D           D(break)  
  To pool my thoughts, and find the words to say

[Chorus]
          C                G                   Em      D
If these sheets were the states, and you were miles away,
               C        G                Em         D  A - Bm
I'd fold them end over end to bring you closer to me.
           C              G               Em           D
Because I don't sleep at all without you pressed up against me.
   Am                                  C              D
I settle for long distance calls, I'm lost in empty pillow talk again.
Bm - C     G
    I'm lost in empty pillow talk again

[Instrumental]
Bm - C - D

[Verse 2]
Bm                      C          G  
  This room's become a mausoleum, filled with relics of regret
Bm        C             D  
  Paying dues to every moment wasted, on words left unsaid
Bm           C           G
  Collisions of a finer love, I'd kill for one more way
Bm            C                D
  To tell you how you make me better every day

[Chorus]
          C                G                   Em       D
If these sheets were the states, and you were miles away,
               C        G                 Em        D   A - Bm
I'd fold them end over end to bring you closer to me.
           C              G               Em           D
Because I don't sleep at all without you pressed up against me.
    Am                                 C              D
I settle for long distance calls, I'm lost in empty pillow talk again.
G  F              Em
  (Lost in empty pillow talk again)
G  F              Em  
  (Lost in empty pillow talk again)

[Solo]
G - F - Em
G - D   D 

[Chorus]
          C                G                   Em       D
If these sheets were the states, and you were miles away,
               C        G                 Em        D   A - Bm
I'd fold them end over end to bring you closer to me.
           C              G               Em           D
Because I don't sleep at all without you pressed up against me.
    Am                                 C              D
I settle for long distance calls, I'm lost in empty pillow talk,
    Am                                 C              D(break)
I settle for long distance calls, I'm lost in empty pillow talk again.

[Outro]
Bm - C     G
    I'm lost in empty pillow talk again.
Bm - C
G - A - F#m

More chords by All Time Low: