All That Remains - Divide Guitar Chords

All That Remains

alternative metal, groove metal, melodic death metal, melodic metalcore

Chords: F, Eb, C#, C, G, D
Intro:    F        Eb    F     C#      Eb               C#              C       Eb
       e|--------------------------------------|     e|---------------------------------|
       B|--------------------------------------|     B|---------------------------------|
       G|-10-10-10-8-8-8-10-10-6-6-6-6-8-8-8-8-| X3  G|-6-6-6-6-6-6-6-6-5-5-5-5-8-8-8-8-|
       D|-8--8--8--6-6-6-8--8--6-6-6-6-8-8-8-8-|     D|-6-6-6-6-6-6-6-6-5-5-5-5-8-8-8-8-|
       A|-8--8--8--6-6-6-8--8--4-4-4-4-6-6-6-6-|     A|-4-4-4-4-4-4-4-4-3-3-3-3-6-6-6-6-|
       E|--------------------------------------|     E|---------------------------------|

Verse:    F                              Eb                    C#                    Eb
       e|--------------------------------------------------------------------------------------------------|
       B|--------------------------------------------------------------------------------------------------|
       G|-10-10-10-x-10-10-10-x-10-10-10-8-8-8-x-8-8-8-x-8-8-8-6-6-6-x-6-6-6-x-6-6-6-8-8-8-x-8-8-8-x-8-8-8-| X2
       D|-8--8--8--x-8--8--8--x-8--8--8--8-8-8-x-8-8-8-x-8-8-8-6-6-6-x-6-6-6-x-6-6-6-8-8-8-x-8-8-8-x-8-8-8-|
       A|-8--8--8--x-8--8--8--x-8--8--8--6-6-6-x-6-6-6-x-6-6-6-4-4-4-x-4-4-4-x-4-4-4-6-6-6-x-6-6-6-x-6-6-6-|
       E|--------------------------------------------------------------------------------------------------|

          Another sleepless night, another day just washed away. 

          So you count your scars, hoping for a new day.

          I know you have the strength to pull through, the lengths I've seen you go to.
 
          So break away and look for something new.


Pre-Chorus:    F        Eb    C# F       Eb
            e|-------------------------------|
            B|-------------------------------|
            G|-10-10-10-8-8-8-6~-10-1010-88~-|
            D|-10-10-10-8-8-8-6~-10-1010-88~-|
            A|-8--8--8--6-6-6-4~-8--8-8--66~-|
            E|-------------------------------|

                             (It's so far away, yeah)

Chorus: e|-------------------------------------------------------------------------------|
        B|-------------------------------------------------------------------------------|
        G|-6-6-xxxxx-6-6-5-5-6-6-xxxxx-6-6-8-8-10-10-xxxxx-10-10-8-8-10-10-xxxxx-----8-8-|
        D|-6-6-xxxxx-6-6-5-5-6-6-xxxxx-6-6-8-8-10-10-xxxxx-10-10-8-8-10-10-xxxxx-6-6-8-8-|
        A|-4-4-xxxxx-4-4-3-3-4-4-xxxxx-4-4-6-6-8--8--xxxxx-8--8--6-6-8--8--xxxxx-6-6-6-6-|
        E|-----------------------------------------------------------------------4-4-----|

           Divide, yourself from what you used to be, gather your integrity

           It's not a loss, you count the people you can trust

        e|--------------------------------------------------------------[----------------------]
        B|--------------------------------------------------------------[----------------------]
        G|-6-6-xxxxx-6-6-5-5-6-6-xxxxx-6-6-8-8-10-10-xxxxx-10-10-8-8-10-[10-10-8-8-6-6-8-8-6-8-] X2
        D|-6-6-xxxxx-6-6-5-5-6-6-xxxxx-6-6-8-8-10-10-xxxxx-10-10-8-8-10-[10-10-8-8-6-6-8-8-6-8-]
        A|-4-4-xxxxx-4-4-3-3-4-4-xxxxx-4-4-6-6-8--8--xxxxx-8--8--6-6-8--[8--8--6-6-4-4-6-6-4-6-]
        E|--------------------------------------------------------------[----------------------]
        
           Divide, and show the world what strength can be, relive your life in honesty

           It's not a loss.  You count the people you can trust: Divide!

Verse:    F                              Eb                    C#                    Eb
       e|--------------------------------------------------------------------------------------------------|
       B|--------------------------------------------------------------------------------------------------|
       G|-10-10-10-x-10-10-10-x-10-10-10-8-8-8-x-8-8-8-x-8-8-8-6-6-6-x-6-6-6-x-6-6-6-8-8-8-x-8-8-8-x-8-8-8-| X2
       D|-8--8--8--x-8--8--8--x-8--8--8--8-8-8-x-8-8-8-x-8-8-8-6-6-6-x-6-6-6-x-6-6-6-8-8-8-x-8-8-8-x-8-8-8-|
       A|-8--8--8--x-8--8--8--x-8--8--8--6-6-6-x-6-6-6-x-6-6-6-4-4-4-x-4-4-4-x-4-4-4-6-6-6-x-6-6-6-x-6-6-6-|
       E|--------------------------------------------------------------------------------------------------|
          
          You made your mind up right, but you're the one thing in your way

          So come on, cross that line, on this we'll never go away

          I know you have the strength to pull through, the lengths I've seen you go to

          So fade away and look for something new

Pre-Chorus:    F        Eb    C# F       Eb
            e|-------------------------------|
            B|-------------------------------|
            G|-10-10-10-8-8-8-6~-10-1010-88~-|
            D|-10-10-10-8-8-8-6~-10-1010-88~-|
            A|-8--8--8--6-6-6-4~-8--8-8--66~-|
            E|-------------------------------|

                             (It's so far away, yeah)

Chorus: e|-------------------------------------------------------------------------------|
        B|-------------------------------------------------------------------------------|
        G|-6-6-xxxxx-6-6-5-5-6-6-xxxxx-6-6-8-8-10-10-xxxxx-10-10-8-8-10-10-xxxxx-----8-8-|
        D|-6-6-xxxxx-6-6-5-5-6-6-xxxxx-6-6-8-8-10-10-xxxxx-10-10-8-8-10-10-xxxxx-6-6-8-8-|
        A|-4-4-xxxxx-4-4-3-3-4-4-xxxxx-4-4-6-6-8--8--xxxxx-8--8--6-6-8--8--xxxxx-6-6-6-6-|
        E|-----------------------------------------------------------------------4-4-----|

           Divide, yourself from what you used to be, gather your integrity

           It's not a loss, you count the people you can trust

        e|------------------------------------------------------------------------------------|
        B|------------------------------------------------------------------------------------|
        G|-6-6-xxxxx-6-6-5-5-6-6-xxxxx-6-6-8-8-10-10-xxxxx-10-10-8-8-10-10-10-8-8-6-6-8-8-6-8-|
        D|-6-6-xxxxx-6-6-5-5-6-6-xxxxx-6-6-8-8-10-10-xxxxx-10-10-8-8-10-10-10-8-8-6-6-8-8-6-8-|
        A|-4-4-xxxxx-4-4-3-3-4-4-xxxxx-4-4-6-6-8--8--xxxxx-8--8--6-6-8--8--8--6-6-4-4-6-6-4-6-|
        E|------------------------------------------------------------------------------------|
        
           Divide, and show the world what strength can be, relive your life in honesty

           It's not a loss.  You count the people you can trust: Divide!

Solo:    F        Eb    F     C#      Eb               C#              C       Eb        
      e|--------------------------------------|     e|---------------------------------|
      B|--------------------------------------|     B|---------------------------------|
      G|-10-10-10-8-8-8-10-10-6-6-6-6-8-8-8-8-| X3  G|-6-6-6-6-6-6-6-6-5-5-5-5-8-8-8-8-|
      D|-8--8--8--6-6-6-8--8--6-6-6-6-8-8-8-8-|     D|-6-6-6-6-6-6-6-6-5-5-5-5-8-8-8-8-|
      A|-8--8--8--6-6-6-8--8--4-4-4-4-6-6-6-6-|     A|-4-4-4-4-4-4-4-4-3-3-3-3-6-6-6-6-|
      E|--------------------------------------|     E|---------------------------------|

         F        Eb    F     C#      Eb               C#              C       Eb
      e|--------------------------------------|     e|---------------------------------|
      B|--------------------------------------|     B|---------------------------------|
      G|-10-10-10-8-8-8-10-10-6-6-6-6-8-8-8-8-| X3  G|-6-6-6-6-6-6-6-6-5-5-5-5-8-8-8-8-|
      D|-8--8--8--6-6-6-8--8--6-6-6-6-8-8-8-8-|     D|-6-6-6-6-6-6-6-6-5-5-5-5-8-8-8-8-|
      A|-8--8--8--6-6-6-8--8--4-4-4-4-6-6-6-6-|     A|-4-4-4-4-4-4-4-4-3-3-3-3-6-6-6-6-|
      E|--------------------------------------|     E|---------------------------------|



Bridge: e|--------------------------------------------------------------------------------------------|
        B|--------------------------------------------------------------------------------------------|
        G|-6~-6--------6-6~-6--------8-10~-10----------10---------------------------------------------|
        D|-6~---6~---6---6~---6~---6-8-10~----10~---10------------------------------------------------|
        A|-4~------4-----4~------4---6-8~---------8-------8-8-8-8-10-10-10-10-11-11-11-11-13-13-13-13-|
        E|--------------------------------------------------------------------------------------------|

             Another setback, another letdown.  I see you're on the verge of changing things tonight.

        e|-------------------------------------------------------|
        B|-------------------------------------------------------|
        G|-6~-6--------6-6~-6--------6-5~-5----xxxxxxx-5-xx-5-xx-|
        D|-6~---6~---6---6~---6~---6---5~---5~-xxxxxxx-5-xx-5-xx-|
        A|-4~------4-----4~------4-----3~------xxxxxxx-3-xx-3-xx-|
        E|-------------------------------------------------------|

              So no excuses, so just stop holding yourself back...you're wasting life, just let go and

Chorus: e|-------------------------------------------------------------------------------|
        B|-------------------------------------------------------------------------------|
        G|-6-6-xxxxx-6-6-5-5-6-6-xxxxx-6-6-8-8-10-10-xxxxx-10-10-8-8-10-10-xxxxx-----8-8-|
        D|-6-6-xxxxx-6-6-5-5-6-6-xxxxx-6-6-8-8-10-10-xxxxx-10-10-8-8-10-10-xxxxx-6-6-8-8-|
        A|-4-4-xxxxx-4-4-3-3-4-4-xxxxx-4-4-6-6-8--8--xxxxx-8--8--6-6-8--8--xxxxx-6-6-6-6-|
        E|-----------------------------------------------------------------------4-4-----|

           Divide, yourself from what you used to be, gather your integrity

           It's not a loss, you count the people you can trust

        e|------------------------------------------------------------------------------------|
        B|------------------------------------------------------------------------------------|
        G|-6-6-xxxxx-6-6-5-5-6-6-xxxxx-6-6-8-8-10-10-xxxxx-10-10-8-8-10-10-10-8-8-6-6-8-8-6-8-|
        D|-6-6-xxxxx-6-6-5-5-6-6-xxxxx-6-6-8-8-10-10-xxxxx-10-10-8-8-10-10-10-8-8-6-6-8-8-6-8-|
        A|-4-4-xxxxx-4-4-3-3-4-4-xxxxx-4-4-6-6-8--8--xxxxx-8--8--6-6-8--8--8--6-6-4-4-6-6-4-6-|
        E|------------------------------------------------------------------------------------|
        
           Divide, and show the world what strength can be, relive your life in honesty

           It's not a loss.  You count the people you can trust: Divide!

Outro:  e|-------------------------------------------------------------------------------------------------|
        B|-------------------------------------------------------------------------------------------------|
        G|-6-6-xxxxx-666-555-666-xxxxx-666-888-101010-xxxxx-101010-888-101010-xxxxx-10-10-8-8-6-6-8-6-8-10-|
        D|-6-6-xxxxx-666-555-666-xxxxx-666-888-101010-xxxxx-101010-888-101010-xxxxx-10-10-8-8-6-6-8-6-8-10-|
        A|-4-4-xxxxx-444-353-444-xxxxx-444-666-8-8-8--xxxxx-8-8-8--666-8-8-8--xxxxx-8--8--6-6-4-4-6-4-6-8--|
        E|-------------------------------------------------------------------------------------------------|

           (Divide, yourself from what you used to be) gather your integrity

           It's not a loss, you count the people you can trust: Divide!

More chords by All That Remains: