All Good Things - Never Surrender Guitar Chords

Chords: Cm, D#, G#, Fm, C#, Gm
Tabbed By: AfroDJ
Email:malik_Wisdom@hotmail.com



(Intro Tab) (also plays through other parts of the song)  

e|-----------------------------------------|
B|-1--1h3h1-----------1--------------------|
G|-----------3--0----1--------1--0---------|
D|------------------0-------0--------------|
A|-----------------0-----------------------|
E|-----------------------------------------|

(Chorus Tab) 

e|-----------------------------------------------------------|
B|-4--3--4--1-----4--3--4--1-----4--3--4--1-----4-3--4--6----|
G|-----------------------------------------------------------|
D|-----------------------------------------------------------|
A|-----------------------------------------------------------|
E|-----------------------------------------------------------|

Intro Chords

Cm,D#,G#,Fm

(Verse 1)

Cm            D#
Monuments may crumble
     G#             Fm
And nations turn to dust
Cm                       D#         
The wheels of worlds may tumble
   G#               Fm
Or grind until they rust
Cm               D#
And millions may surrender
    G#                 Fm
And bend beneath their fear
        Cm            D#
But the flames of our resistance
         D#               Fm
Are just waiting for some air

  (Pre Chorus)

G#
Time
         Cm
Pressure and time
    G#
Are all it takes
                D#
To blow the mine

  (Chorus)

Cm           G#
We're so far down
D#           Fm
We're so far gone
Cm           G#
We're so far out
D#
But you'll never take us
Fm
But you'll never take us

Cm,D#,G#,Fm x2

     (Verse 2)
Cm                  D#
So play the card of violence
G#               Fm
Play the card of fear
C#                    D#
And when your hand is empty
G#               Fm
We will still be here
C#                  D#
And whether we have weapons
G#                  Fm
And whether we have none
C#                D#    
We'll rise up and defy you
G#                  Fm
Until this battle's won

G#
Time
         Cm
Pressure and time
    G#
Are all it takes
                D#
To blow the mine


 (Chorus)

Cm           G#
We're so far down
D#           Fm
We're so far gone
Cm           G#
We're so far out
D#
But you'll never take us
Fm
But you'll never take us


(Bridge)

G#
This wall can't hold back a river
    Cm
You can't, you won't seal every crack
    G#
One brake, one fault will lead to another
    Cm
One chance is all we need
Gm
This wall can't hold back a river
Cm
You push you're holding fast
G#
You can't keep fighting forever
Fm
One chance is all we need

(Instrumental rift)

Cm,D#,Fm,
Cm,D#,G#
Cm,D#,Fm
Cm,D#,Fm


(Chorus)
         Cm D# G#    Fm
We're so far   down
         Cm D# G#  Fm
We're so far   gone
         Cm    G#
We're so far...
         D#    Cm
We're so far
Fm
But you'll never take us
Cm           G#
We're so far down
D#
But you'll never take us
Fm
But you'll never take us

Outro Chords
Cm,G#,Cm,Fm
Cm,G#,D#,Fm
Ends on Cm

More chords by All Good Things: