Alkinoos Ioannidis - Θα Μαι Κοντά Σου Όταν Με Θες Guitar Chords

Chords: Em, G, Dm, F, Am
e|-----0-------0-------0-------0---|
B|---------3-------1-------3-------|
G|-0-2-----------------------------|
D|---------------------------------|
A|-------0---0---0---0---0---0---0-|
E|---------------------------------|
Ξύπνησα μες στον ύπνο μου κι άκουσα δυο φωνές, η μία μου 'πε ξέχνα τη και πάψε πια να κλαίς
          Em        G                 Dm            F            Am
Μα η άλλη ήταν η δική σου μέσα απ' του ύπνου, του εφιάλτη τις γραμμές
            Em          G      Dm
Μου 'λεγε αγάπη μου κοιμήσου
           Em
θα 'μαι κοντά σου όταν με θες

e|-----0-------0-------0-------0---|
B|---------3-------1-------3-------|
G|-0-2-----------------------------|
D|---------------------------------|
A|-------0---0---0---0---0---0---0-|
E|---------------------------------|
Τα χρόνια είν' αμέτρητα μα είν' η ζωή μικρή, συνήθισα να σ' αγαπώ συνήθισες και 'σύ
             Em           G          Dm        F               Am
Μα είναι τα χρόνια ένα δοχείο ένα φτηνό ξενοδοχείο για δυο στιγμές
          Em           G               Dm         F             Am
Για να χωράει κάπου ο πόνος τις νύχτες όταν μένω μόνος, τις σιωπές μου
          Em          G           Dm          Am
να μετράω να σε θυμάμαι όταν πονάω να μου λες
           Em
Θα 'μαι κοντά σου όταν με θες

e|-----0-------0-------0-------0---|
B|---------3-------1-------3-------|
G|-0-2-----------------------------|
D|---------------------------------|
A|-------0---0---0---0---0---0---0-|
E|---------------------------------|

Το παραμύθι τελείωσε κι αρχίζει η ζωή, αχ να 'ταν η αλήθεια σου σαν ψέμα αληθινή
       Em              G          Dm          F          Am
Τι να την κάνω τη ζωή μου στο παραμύθι θα τη ρίξω να πνιγεί
        Em            G               Dm        F         Am
Να παραμυθιαστεί η ψυχή μου να σε πιστέψει πάλι απο την αρχή
         Em               G                Dm        F         Am
Να σε πιστεύει όταν μ' αγγίζεις τις νύχτες όταν ψιθυρίζεις, όταν λες
           Em
θα 'μαι κοντά σου όταν με θες

e|-----0-------0-------0-------0---|
B|---------3-------1-------3-------|
G|-0-2-----------------------------|
D|---------------------------------|
A|-------0---0---0---0---0---0---0-|
E|---------------------------------|

More chords by Alkinoos Ioannidis: