Alkaer - Supernova Guitar Chords

Chords: C5, G5, A5, F5
Ya q no tengo naa q hacer hay q mandar acordes pz,  a la mierda
q se va a hacer. Bueno aca esta la cancion de alkaer, esta
perfecta asi q no jodan, y si suena mal es xq no saben pz, asi
de simple.
So, enjoy it.

INTRO

(C5 - G5 - A5 - F5/G5)X4 //todo esto con ritmo

1/----------------------------------------------------/
2/--8888--6666--8888--6666--4444--6666--888-6-8-------/
3/----------------------------------------------------/ X4

C5 un webo de veces

(C5 - G5 - A5 - F5/G5)X2

VERSO 1:
C5                  G5                         A5
A veces dicen q la gente de ahora no sabe opinar
                     F5           G5
Solo lo hacen cuando es para decir lo q esta mal
C5                   G5                        A5
Si solo abrieran un poco su corazón a los demás
                    F5          G5               C5
Verían estrellas lloviendo como gotas de cristal

CORO:
C5            G5           A5
Y no está bien les da igual
               F5        G5
Ver como se pudre esta sociedad
C5         G5             A5
Mis ojos ven todo esta mal
                   F5          G5      C5  G5     A5     F5/G5
Alza los puños y no dejes nunk de gritar     nanananana

PUNTEO:

(C5 - G5 - A5 - F5/G5)
1/-------------------------------------------/
2/-2-6-8-6/10-8-6-8-6/8-6---4-2--2-6-4-6-2---/
3/-------------------------------------------/

(C5 - G5 - A5 - F5/G5)
1/------------------------------------------------------/
2/-2-6-8-6/10-8-6-8-6/8-6--4-10-8-6-8-6-4-2--2-4-2--2-4-/
3/------------------------------------------------------/

C5 un webo de veces

(C5 - G5 - A5 - F5/G5)X2

VERSO 2:
C5                   G5                        A5
El tiempo pasa y sé q deja las cosas malas atrás
                    F5         G5
Las agujas del reloj no marcaran más igual
C5                G5                     A5
Y no podemos ayudar a cambiar la humanidad
                   F5             G5           C5
Es necesario q demos de nuevo un paso para atrás


CORO:
C5            G5           A5
Y no está bien les da igual
               F5        G5
Ver como se pudre esta sociedad
C5         G5             A5
Mis ojos ven todo esta mal
                   F5          G5      C5  G5  A5     F5/G5
Alza los puños y no dejes nunk de gritar     nanananana

(Se repite dos veces el coro)


FINAL:

(C5 - G5 - A5 - F5/G5)
1/-------------------------------------------/
2/-2-6-8-6/10-8-6-8-6/8-6---4-2--2-6-4-6-2---/
3/-------------------------------------------/

(C5 - G5 - A5 - F5/G5)
1/-------------------------------------------------------/
2/-2-6-8-6/10-8-6-8-6/8-6--4-10-8-6-8-6-4-2--2-4-2--2-4-2/
3/-------------------------------------------------------/


C5 un webo de veces hasta el final

FIN

More chords by Alkaer: