Alive in Wild Paint - Traffic Guitar Chords

Chords: Am, C, G, D
Another simple, amazing song by Alive In Wild Paint.
Capo 1st fret
The picking in the verse isn't hard to figure out,
but for the chorus it's this 4 times for every chord.
|----------|
|----------|
|--------x-|
|---x------|
|--------x-|
|--x-------|


Chords:
   Am    C   G   D
|------------3---2-----|
|--1-----1---3---3-----|
|--2-------------2-----|
|--2-----2-------------|
|--------3---2---------|
|------------3---------|

Verse:
   Am    C      
|--------------------|
|--1-----1-----------|
|--2-----------------|
|--2-----2-----------|
|--------3-----------|
|--------------------|

Chorus:
  G   D   Am    C  
|-3---2----------------|
|-3---3---1-----1------|
|-----2---2------------|
|---------2-----2------|
|-2-------------3------|
|-3--------------------|

At the end you can play this if you want, even though nothing is played in the recorded version.

Am                  C
I'm gonna cut this out


More chords by Alive in Wild Paint: