Aliocha - Sarah Guitar Chords

Aliocha

canadian folk, indie quebecois

Chords: Am, E, Fmaj7, C/G, Em7, Em7/B, Dm, F, Bb(b5), C
[Intro]
Am E Fmaj7 C/G

[Verse 1]
Am         E
In a magic world Sarah
Fmaj7               C/G
Been thinking 'bout you
Am          E
In a static swirl Sarah
Fmaj7     C/G
Time is a ruin
    Fmaj7    Em7
And I love a woman
       Fmaj7      Em7/B
With a heart of a boy still (alright)

[Bridge]
Am Dm F C/G
Am Dm F C/G

[Verse 2]
Am             E
I met a mystic girl Sarah
Fmaj7          C/G
Thought it was you
Am             E
I'm in a magic world Sarah
Fmaj7          C/G
And you should come through
            Fmaj7        Em7
When you're tired of the same folks
            Fmaj7        Em7/B
When you're tired of the same jokes

[Bridge]
Am Dm F C/G
Am Dm F C/G

[Outro]
   Bb(b5)                                            F                       C
E|----------------0-----------------0--------------|-------------------------------------------------|
B|-------11----11----------11----11----------11----|-------10----10----------------5-----5-----------|
G|-------------------------------------------------|----------------10----------------------5--------|
D|----12----12----------12----12----------12----12-|----10----10----------10----5-----5-----------5--|
A|-13----------------13----------------13----------|-8-----------------8-----3-----------------3-----|
E|-------------------------------------------------|-------------------------------------------------|
   Bb(b5)   (Alternative way to play Bb(b5))         F                       C
E|-------6-----6-----------6-----6-----------6-----|-------------------------------------------------|
B|----------------5-----------------5--------------|-------10----10----------------5-----5-----------|
G|----7-----7-----------7-----7-----------7-----7--|----------------10----------------------5--------|
D|-8-----------------8-----------------8-----------|----10----10----------10----5-----5-----------5--|
A|-------------------------------------------------|-8-----------------8-----3-----------------3-----|
E|-------------------------------------------------|-------------------------------------------------|

E|----------------0-----------------0--------------|-------------------------------------------------|
B|-------11----11----------11----11----------11----|-------10----10----------------5-----5-----------|
G|-------------------------------------------------|----------------10----------------------5--------|
D|----12----12----------12----12----------12----12-|----10----10----------10----5-----5-----------5--|
A|-13----------------13----------------13----------|-8-----------------8-----3-----------------3-----|
E|-------------------------------------------------|-------------------------------------------------|
            Will you come and see me                                 To the car-                -nival

E|----------------0-----------------0--------------|-------------------------------------------------|
B|-------11----11----------11----11----------11----|-------10----10----------------5-----5-----------|
G|-------------------------------------------------|----------------10----------------------5--------|
D|----12----12----------12----12----------12----12-|----10----10----------10----5-----5-----------5--|
A|-13----------------13----------------13----------|-8-----------------8-----3-----------------3-----|
E|-------------------------------------------------|-------------------------------------------------| x2
               Will you come and see me                              If I go now

More chords by Aliocha: