Aline Barros - Vitória No Deserto Guitar Chords

Aline Barros

adoracao, brazilian gospel

Chords: G, D9, Em, C, D
[Verse 1]
G                 D9             Em   C
 Quando a noite fria cair sobre mim
G         D9                Em   C
 E num deserto eu me encontrar
G                     D9              Em  C
 Me ver cercado por egípcios e por Faraó
G           D9            Em  C
 Sendo impedido de prosseguir

[Verse 2]
G               D9               Em  C
 Sei que o Seu fogo cairá sobre mim
G               D9               Em  C
 Sei que o Seu fogo cairá sobre mim
G          D9             Em  C
 E me levará a em Ti confiar
G          D9             Em  C
 E me levará a em Ti confiar

[Pre-Chorus]
            G      D9             Em  C
Então eu direi, oh oh, abra-se o mar
           G                D9              Em   C
E eu passarei pulando e dançando em Sua presença
            G      D9             Em  C
Então eu direi, oh oh, abra-se o mar
           G                D9              Em   C
E eu passarei pulando e dançando em Sua presença

[Chorus]
             G                       D9
Por isso eu pulo, pulo, pulo, pulo, pulo
                Em  C
Na presença do Rei
             G                           D9
Por isso eu danço, danço, danço, danço, danço
                Em  C
Na presença do Rei
              G                           D9
Por isso eu grito, grito, grito, grito, grito
                Em  C
Na presença do Rei
             G                           D9
Por isso eu corro, corro, corro, corro, corro
                Em  C
Na presença do rei

[Riff]
E|--------------------------------|-------------------------------|------------------------------|
B|--------------------------------|-------------------------------|------------------------------|
G|--------------------------------|-------------------------------|------------------------------|
D|--------------------1-----------|-------------------------------|------------------------------|
A|----------5-7---2-----0-3---2-0-|---------5-7---3---2-0-----0-2-|---------5-7---2-------3------|
E|0---3-5-7-----------------------0---3-5-7---------------3-------0---3-5-7----------------------|
  ^       ^       ^       ^       ^       ^       ^       ^       ^       ^       ^       ^

E|--------------------------------|-------------------------------|
B|--------------------------------|-------------------------------|
G|4---------------2---------------2-------------------------------|
D|3---------------0---------------0-------------------------------|
A|--------------------------------|-------------------------------|
E|--------------------------------|-------------------------------|
  ^       ^       ^       ^       ^       ^       ^       ^       ^

[Pre-Chorus]
            G      D9             Em  C
Então eu direi, oh oh, abra-se o mar
           G                D9              Em   C
E eu passarei pulando e dançando em Sua presença
            G      D9             Em  C
Então eu direi, oh oh, abra-se o mar
           G                D9              Em   C
E eu passarei pulando e dançando em Sua presença

[Chorus]
             G                       D9
Por isso eu pulo, pulo, pulo, pulo, pulo
                Em  C
Na presença do Rei
             G                           D9
Por isso eu danço, danço, danço, danço, danço
                Em  C
Na presença do Rei
              G                           D9
Por isso eu grito, grito, grito, grito, grito
                Em  C
Na presença do Rei
             G                           D9
Por isso eu corro, corro, corro, corro, corro
                Em  C
Na presença do rei

[Post Chorus]
            G      D9             Em  C
Então eu direi, oh oh, abra-se o mar
           G                D9              Em   C
E eu passarei pulando e dançando em Sua presença
            G      D9             Em  C
Então eu direi, oh oh, abra-se o mar
           G                D9              Em   C
E eu passarei pulando e dançando em Sua presença

[Outro]
 D  G
Senhor

More chords by Aline Barros: