Alice Phoebe Lou - Orbit Guitar Chords

Song versions: 1 2
Chords: A7M, A6, G#7, F#m7, F#m6
-----------------------------------------------------------------------------
                        ORBIT - Alice Phoebe Lou
-----------------------------------------------------------------------------
Tabbed by: PSP-
TxTPereira@gmail.com

There are tabs for the chords at the end.


3/4

Intro-
A7M A6 
A7M A6
G#7

A7M               A6          A7M                A6
One foot on the pavement and one foot in the milky way
G#7
And I’m soaring
Soaring
A7M               A6 
My branches scrape the sea of stars
A7M               A6 
My roots dig deep into this world of ours
G#7
And I’m grounded
Grounded

C#m7          D#º
My reality is what I perceive
E7M(9)        F#m7   F#m6
What I attract into my orbit
C#m7          D#º
Worries fade into the haze
E7M(9)            F#m7            F#m6
The air feels different this time round
F#m7         F#m6
Different this time round

C#m7     D#º
Let’s set sail 
E7M(9)
Start a fire
F#m7   F#m6
Learn to live a little higher
C#m7          D#º
Let’s pick the lock
E7M(9)
Grab the reigns 
F#m7                    F#m6
Forget there ever were chains
F#m7                    F#m6
Cause there never were chains
F#m7       F#m6
Never were chains

A7M A6
A7M A6
G#7

A7M         A6 
Days move on and times they change
A7M         A6 
In a blink of an eye things rearrange
G#7
We’re moving
Moving
A7M         A6 
We’re sucked in and we’re spat out
A7M         A6 
On the other side of the rabbit hole
G#7
But we find our way
Find our way

C#m7            D#º     E7M(9)             F#m7      
Do you want to be just a machine in this crazy society?
C#m7            D#º
Pick the lock
E7M(9)
Grab the reigns 
F#m7                     F#m6
Forget there ever were chains
F#m7                      F#m6
Cause there never were chains


C#m7            D#º        E7M(9)             F#m7 
C#m7            D#º        E7M(9)             F#m7            F#m6
F#m7            F#m6

C#m7            D#º        E7M(9)             F#m7 
C#m7            D#º        E7M(9)             F#m7            F#m6
F#m7            F#m6

C#m7            D#º        E7M(9)             F#m7 
C#m7            D#º        E7M(9)             F#m7            F#m6
F#m7            F#m6  ||

CHORDS

Intro chords-

   A7M       A6      G#7
e|----------------------------|
B|----------------------------|
G|--------------------5-------|
D|--6--------4--------4-------|
A|--4--------4--------6-------|
E|--5--------5--------4-------|

Verse chords-

   C#m7       D#º       E7M(9)        F#m7         F#m6
e|------------------------------------------------------------|
B|--5---------7---------(7)------------(7)---------(7)--------|
G|--4---------5----------8--------------9-----------8---------|
D|--6---------7----------6--------------7-----------7---------|
A|--4---------6----------7--------------9-----------9---------|
E|------------------------------------------------------------|

More chords by Alice Phoebe Lou: