Alice in Chains - Your Decision Guitar Chords

Alice in Chains

alternative metal, alternative rock, grunge, hard rock

Song versions: 1 2 3
Chords: Emaj, Gmaj, Dmaj, Cmaj, Fmaj7, Cadd9, G6, Aadd9, Em7
Artist: Alice in Chains
Song: Your Decision
Album: Black Gives Way To Blue
*Acoustic Version

Half Step Down from Standard Tuning
Eb,Ab,Db,Bb,Gb,Eb

Great song to a great album.

I've listened this song countless times.
I organized the basic chords to each of the following below.
Made the tab straight forward to learn, play, and singing.
I believe E major is the correct chord used.
I played the chord while listening to the song and it sounds the same.
Make sure to tune half step down from standard tuning.

Basic Chord Rhythm:


[Intro, Verse, Chorus]

    Emaj   Gmaj   Dmaj   Cmaj
D#|-0---- -3---- -2---- -0----|
A#|-0---- -3---- -3---- -1----|
F#|-1---- -0---- -2---- -0----|
C#|-2---- -0---- -0---- -2----|
G#|-2---- -2---- -0---- -3----|
D#|-0---- -3---- -0---- -0----|


[Bridge 1]

    Dmaj    Fmaj7     Cadd9     Gmaj
D#|-2----- -0------- -3------- -3--------|
A#|-3----- -1------- -3------- -3--------|
F#|-2----- -2------- -0------- -0--------|
C#|-0----- -3------- -2------- -0--------|
G#|-0----- -3------- -3------- -2--------|
D#|-0----- -0------- -0------- -3--------|


[Bridge 2]

    G6       Aadd9     Em7       Dmaj          Cadd9
D#|-0------ -0------- -3------- -2----------- -3---------|
A#|-0------ -0------- -3------- -3----------- -3---------|
F#|-4------ -6------- -0------- -2----------- -0---------|
C#|-5------ -7------- -2------- -0----------- -2---------|
G#|-5------ -7------- -2------- -0----------- -3---------|
D#|-3------ -5------- -0------- -0----------- -0---------|


[Intro]

Emaj, Gmaj, Dmaj, Cmaj


[Verse 1]

Emaj  Gmaj    Dmaj     Cmaj       Emaj
      Time to change has come and gone

Emaj  Gmaj    Dmaj        Cmaj       Emaj
      Watched your fears become your God


[Chorus]

Emaj, Gmaj, Dmaj
Cmaj        Emaj, Gmaj, Dmaj, Cmaj
It's your decision (2x)


[Verse 2]

Emaj  Gmaj    Dmaj     Cmaj     Emaj
      Overwhelmed, you chose to run
Emaj  Gmaj  Dmaj Cmaj   Emaj
      Apathetic to the stunned


[Chorus]

Emaj, Gmaj, Dmaj
Cmaj        Emaj Gmaj Dmaj Cmaj
It's your decision (2x)


[Bridge 1]

Dmaj Fmaj7  Cadd9      Gmaj      Dmaj
You feed the fire that burned us all
Fmaj7  Cadd7 Gmaj
When you lied
Dmaj Fmaj7  Cadd9      Gmaj      Dmaj
To feel the pain that spurs you on
Fmaj7  Cadd7 Gmaj
Black inside


[Bridge 2]

 G6     Aadd9           Em7                   Dmaj
No one plans to take the path that brings you lower
 G6     Aadd9           Em7                   Dmaj
And here you stand before us all and say it's over
Cadd9
It's over


[Intro]

Emaj, Gmaj, Dmaj, Cmaj (4x)


[Verse 3]

Emaj  Gmaj    Dmaj     Cmaj     Emaj
      It might seem an afterthought
Emaj  Gmaj    Dmaj     Cmaj       Emaj
      Yes it hurts to know you're bought


[Chorus]

Emaj, Gmaj, Dmaj
Cmaj        Emaj, Gmaj, Dmaj, Cmaj
It's your decision (2x)


[Bridge 1]

Dmaj Fmaj7  Cadd9      Gmaj      Dmaj
You feed the fire that burned us all
Fmaj7  Cadd7 Gmaj
When you lied
Dmaj Fmaj7  Cadd9      Gmaj      Dmaj
To feel the pain that spurs you on
Fmaj7  Cadd7 Gmaj
Black inside


[Chorus]

Emaj, Gmaj, Dmaj
Cmaj        Emaj, Gmaj, Dmaj, Cmaj
It's your decision (2x)


[Bridge 2]

G6     Aadd9           Em7                   Dmaj
No one plans to take the path that brings you lower
G6     Aadd9           Em7                   Dmaj
And here you stand before us all and say it's over
Cadd9
It's over (2x)


[End]


*Please rate and post your comments for the tab*

More chords by Alice in Chains: