Alice in Chains - The One You Know Guitar Chords

Alice in Chains

alternative metal, alternative rock, grunge, hard rock

Chords: D#(b9), D, F#m, B
 *D#(b9) (no3) chord

e|--------------------|
B|--------------------|
G|---9----------------|
D|---8----------------|
A|---6----------------|
E|--------------------|


[Verse 1]
 D#(b9)
I'm a little alike
D#(b9)
You before things had changed
D#(b9)
In a compass, I ride
D#(b9)
All this feels rearranged


[Chorus]
D                F#m
Tell me, does it matter
D                F#m
If I'm still here, or I'm gone?
D                F#m
Shifting to the after
D                                 D#(b9)
An impostor, I'm not the one you know


[Verse 2]
 D#(b9)
I look the same outside
D#(b9)
Nearly me even though
 D#(b9)
I carry something I hide
 D#(b9)
Underneath the one you know


[Chorus]
D                F#m
Tell me, does it matter
        D                 F#m
If I'm still here, or I'm gone?
 D                F#m
Shifting to the after
D                F#m
An impostor, so disowned

D        F#m      D           F#m
Are you surprised black water flows
 D            F#m
From wells run dry?
D
I'm not the one you know


[Solo]
*taken and transposed from Absolute Rock-O's Guitar Pro file

E||---------------------------------|-------------------------------------------|
B||----------7--9--x--7--9b---7-----|-----9/11----7-----------------------------|
G||-8----8----------------------8---|-8----------------8--6--x--x---------------|
D||---------------------------------|-----------------------------6b---4--------|
A||---------------------------------|------------------------------------6b--6b-|
E||---------------------------------|-------------------------------------------|


E|-----------------|--------------------------------------|------------------------------------|
B|-----------------|--------------------------------------|----------------4---4\2--4/6--4-----|
G|-----------------|--------------------------------------|------------------------------------|
D|-----------------|-6b--4----4---------------------------|------------------------------------|
A|-v---v-----v-----|-------6-----4----------4-------------|-----6-----6------------------------|
E|-----------------|------------------5--6-----5--4--2----|------------------------------------|


E|-----------------------------|------------------------------------|-------------------------|
B|-----14b----14b-----14-------|------------------------------------|-------------------------|
G|---------------13b----13-11--|------------------------------------|-------------------------|
D|-----------------------------|-----6b----4------------------------|-----------------4-------|
A|-----------------------------|----------------6p4-----------------|-----------4--------6----|
E|-----------------------------|----------------------6--5--4--2b---|-2b----2b-----6----------|


E|-------------|-------------|---------------------|-6\-----||
B|-------------|-------------|---------------------|-7\-----||
G|-------------|-------------|-6----6----5----3----|-8\-----||
D|-6b---6b-----|-4b----4b----|-8----8----6----4----|--------||
A|-------------|-------------|---------------------|--------||
E|-------------|-------------|---------------------|--------||


[Bridge]
F#m      B           F#m
Lay me out with our guilt
           D
Watch the explosions fall, rain
F#m      B             F#m
Cannot live within this tilt
         D
Carryin' over
F#m                 D
I'm not the one you know


[Chorus]
D                F#m
Tell me, does it matter
        D                 F#m
If I'm still here, or I'm gone?
 D                F#m
Shifting to the after
D                F#m
An impostor, so disowned


D        F#m      D           F#m
Are you surprised black water flows
 D            F#m
From wells run dry?
D                    F#m
I'm not the one you know
D                    F#m
I'm not the one you know

More chords by Alice in Chains: