Alí Primera - La Piel De Mi Niña Huele A Caramelo Guitar Chords

Alí Primera

classic venezuelan pop, nueva cancion, venezuelan rock

Chords: E, A, B7, E7, C
'Hay les dejo solo un sorbito de la ternura infinita
del cantor de Venezuela que aun dibujando su canción
inspirado en la piel de su niña, recuerda lo que hacia,
y lo que hace, aun despues de muerto.
Cantar para el pueblo.'


LOS PIES DE MI NIÑA HUELEN A CARAMELO

Intro:

e|-4-----4-----4-----4-----2-----5-----4-----2-----4-----4-----5-------
B|---5-----5-----5-----5-----5-----5-----5-----5-----5-----5-----5-----
G|-----4-----4-----4-----4-----4-----4-----4-----4-----4-----4-----4---
D|---------------------------------------------------------------------
A|---------------------------------------------------------------------
E|---------------------------------------------------------------------

e|-4-----2-----5-----4-----2-----4-----4-----4-----4-------------------
B|---5-----5-----5-----5-----5-----5-----5-----5-----5-----------------
G|-----4-----4-----4-----4-----4-----4-----4-----4-----4---------------
D|---------------------------------------------------------------------
A|---------------------------------------------------------------------
E|---------------------------------------------------------------------


 E
- La piel de mi niña
 A
  huele a caramelo
                B7
  y al mango dulcito

  que se da en mi pueblo

  E
A) A piel de E niña
                   A
   es mi propia piel

   solo que en la vida
                    E
   hay sudores viejos


 E                B7
- Mi piel chamuscada
               E
  ardida en deseos
                  B7
  y la piel de mi niña
              E
  huele a caramelo


A) Si hay que hacer la guerra
   la guerra se hará
   para ver los niños
   felices jugar


   E              B7
B) Y a la gente vieja
                   E
   hablar de la paz
   E7                  A
   que después la guerra
  B7          E
   estara demás
   E7                  A
   que después la guerra
  B7          E
   estara demás


   E             B7
C) Pirulí, giraluna
                  E
   pirulí, pirulero
                       B7
   que la piel de mi niña
                  E
   huele a caramelo
                 B7
   dormite mi niña
                      E
   despierten los viejos
                    B7
   busquen la alborada
                    E
   por un mundo nuevo
                 B7
   Pirulí, giraluna
                     E
   por la misma tierra
                  B7
   pirulí, pirulero
                    E
   por el mismo cielo


A) A piel de E niña
   es piel de mi pueblo
   es mi propia piel
   y del pueblo vengo


B) Con sus niños viejos
   sus niños obreros
   sin un solo mango
   sin un caramelo
   sin un solo mango
   sin un caramelo


C) Pirulí, giraluna
   pirulí, pirulero
   que la piel de mi niña
   huele a caramelo
   despierten los niños
   despierten los viejos
   corral la alborada
   por un mundo nuevo


C) Es bravo tío tigre
   pero tío conejo
   dará a cada niño
   un lindo lucero
   y también mango
   y un caramelo
   pirulí, giraluna
   pirulí, pirulero
   que la piel de mi niña
   huele a caramelo
   pirulí, giraluna
   por la misma tierra
   pirulí, pirulero
   bajo el mismo cielo

ACORDES:
   EADGBe
E :xxx454
A :xxx655
B7:xxx242
E7:xxx434

Nota: los acordes se tocan de abajo hacia arriba, es decir, e,B y luego G.


Cualquier comentario, duda, sugerencia, corrección, etc...
  Favor comunícate por el mail: enriquejoserosario@

  ¡¡ SALUDOS DESDE VENEZUELA  !!

More chords by Alí Primera: