Alf - Motljus Guitar Chords

Alf

bossa nova, velha guarda

Chords: D, G, Em, A, Bm, C
[Verse]

 D  G Em   A              D    G Em 
 nutid var aldrig riktigt min tid
     A            D  G Em
 jag levde mest i dåtid
    A           D    G A                
 du hittade mig mitt i den
 D   G Em   A               D   G Em
 timmar det fanns för många timmar
         A             D    G Em        
 säg hur skulle dom försvinna
     A              D G A
 var skulle dom bli av
     Em                        Bm
 men det e inget speciellt med det
    Em            D        A
 så vet jag många andra som e


[Chorus]

     D  A G          D
 men du e vackrast i kväll
 Bm  A    G            D
 jag e så trött på mig själv
 D A   G         D
 intressantast ändå
   Bm   A   G           D  A    
 e allt som skiljer oss åt
 Bm   A   G           D   C G
 allt som skiljer oss två


[Verse]

 D G Em  A               D  G Em
 udda så enkelt att vara udda
 A          D    G Em
 leva i det dunkla
   A             D G A
 o säga nej till allt
 D    G Em   A           D          G Em
 rödljus jag vet jag var ett stoppljus
     A              D    G Em
 när du kom som ett blåljus
     A            D   G   A
 ett motljus i en sjukdomsbild
     Em                        Bm
 men det e inget speciellt med det
    Em            D        A
 så vet jag många andra som e


[Chorus]

     D  A G          D
 men du e vackrast i kväll
 Bm  A    G            D
 jag e så trött på mig själv
 D A   G         D
 intressantast ändå
   Bm   A   G           D  A    
 e allt som skiljer oss åt
 Bm   A   G           D   A
 allt som skiljer oss två


[Outro]

D A G D Bm A G D x2 

Bm A G D A x2

E ---2-5-5-5-5-5-10-9-7-5-3-2-5-5-5-5-5-10-9-7-5-3-2-|
H -3-------------------------------------------------|
G ---------------------------------------------------|
D ---------------------------------------------------|
A ---------------------------------------------------|
E ---------------------------------------------------|

E -----------14-12-10-9-7-5-5-3-2-3-5-|
H -3-3-3-3-3--------------------------|
G ------------------------------------|
D ------------------------------------|
A ------------------------------------|
E ------------------------------------|

More chords by Alf: