Alf - Manchester Man Guitar Chords

Alf

bossa nova, velha guarda

Chords: G, C, Em, D, F, Am, Bm, Dsus4
[Intro & End]

  G      C     G Em    D     G G       C    G Em   D      G     
E -------------------------------------3-2-0---------------|
H -3-3-3-5-3-1-3---------------3-3-0-3------3--------------|
G ---------------4-4-4-2-4-2-0----------------4-4-4-2-4-2-0|
D ---------------------------------------------------------|
A ---------------------------------------------------------|
E ---------------------------------------------------------|

(Istället för Tabulatur kan Du spela: G C G Em D G x2)


[Verse]

F           Am                G
 jag var så liten i för tajta jeans
       Am                       G       
 varje dag var som ett seriemagasin
            Am                       Bm
 jag visste ingenting om konst o politik
          C 
 jag hade huvudet fullt av
 D           C
 treackords-musik
        Am                         G
 var så vilsen i en tid som var så skev
          Am                     G
 han hade åren som jag inte hade levt
     Am                    Bm
 ett överlägset akademiskt flin
    C           D           C  
 en doktorand i självbedrägeri


[Instrumental] D C Dsus4 D C x2 


[Chorus]

G             C       G
 där e han så snygg o snäll
Em            D       G 
 där e han manchester man
G              C     G  
 e du där e du där i kväll
Em              D       G
 där hos han manchester man


[Verse]

F    Am                         G
 han gav dig nåt jag inte kunde ge
         Am                         G
 men jag såg allt som du inte ville se
        Am                          Bm
 hur du satt där sidan om o tittade på
         C            D          C
 som ett smycke i ett ja-sägande hov
        Am                           Em
 och du slängde bort din allra bästa tid
        Am                    G
 åt att lyssna på hans stulna poesi
   Am                        Bm
 o även om det gått en massa år
         C     D             C
 kan jag undra ibland hur du mår


[Instrumental] D C Dsus4 D C x2


[Chorus]

G             C       G
 där e han så snygg o snäll
Em            D       G 
 där e han manchester man
G              C     G  
 e du där e du där i kväll
Em              D       G
 där hos han manchester man
G         C     G    Em 
 e du där där i kväll där hos han
    D       G   
 manchester man
G              C   G
 e du kär e du kär ikväll
Em            D       C Am Bm C G D
 kär i han manchester man


[Instrumental] D C Dsus4 D C x2


[End]

  G      C     G Em    D     G G       C    G Em   D      G     
E -------------------------------------3-2-0---------------|
H -3-3-3-5-3-1-3---------------3-3-0-3------3--------------|
G ---------------4-4-4-2-4-2-0----------------4-4-4-2-4-2-0|
D ---------------------------------------------------------|
A ---------------------------------------------------------|
E ---------------------------------------------------------|

More chords by Alf: