Alf - Känslan Du Har Guitar Chords

Alf

bossa nova, velha guarda

Chords: C#m, B, A, F#m, G#, E
[Intro] C#m

e|---------------------------------------|
B|-4-5--4--2-----------------------------|
G|------------4-4------------------------|
D|-----------------6-6-4-4-4/6-2---------|
A|-------------------------------4-------|
E|---------------------------------------|

e|---------------------------------------|
B|-4-5--4--2------------------------4----|
G|------------4-4--------------4/6~----4-|
D|-----------------6-6-4-4-4/6-----------|
A|---------------------------------------|
E|---------------------------------------|


[Verse]

         C#m                      B         A
Du är en gammal refräng i varken dur eller moll
       C#m                        B    A
Samma sång, samma sväng och samma innehåll
          C#m                    B        A
Jag är en dålig idé, jag är det sista du minns
     C#m                     B          A
Ett gammalt brev och jag är risken som finns
    F#m              C#m
Har aldrig varit min stil
    F#m           A   B  G#
Att ha en låg profil


[Chorus]

C#m    A      E            B         C#m  B  A
Jag är den du är i varje steg som du tar
C#m    A       E         B          A  B
Tanken som du tänkte är känslan du har


[Verse]

Jag är en objuden gäst, jag är din sämsta vän
Kransen du fick som aldrig kommer igen
Alla dar som har gått
Lite för fort
Å allt som du önskar att du inte gjort
Har aldrig vart min stil
Att ha en låg profil


[Chorus]

C#m    A      E            B         C#m  B  A
Jag är den du är i varje steg som du tar
C#m    A       E         B          A  B
Tanken som du tänkte är känslan du har

C#m    A      E            B         C#m  B  A
Jag är den du är i varje steg som du tar
C#m    A       E         B          A  B
Tanken som du tänkte är känslan du har

C#m    A      E            B         C#m  B  A
Jag är den du är i varje steg som du tar
C#m    A       E         B          A  B
Tanken som du tänkte är känslan du har


[Outro]


C#m    A      E            B         C#m  B  A
Jag är den du är i varje steg som du tar
C#m    A       E         B          A  B
Tanken som du tänkte är känslan du har

Har, har...

More chords by Alf: