Alex Campos - Tuyo Soy Guitar Chords

Alex Campos

latin christian, latin worship

Song versions: 1 2
Chords: D#m, B, F#, C#, Fm, G#, D#, A#m, C
Quinto Track del disco Lenguaje de Amor

Intro: D#m

1er Verso:
D#m
Cuando te vi yo no entendí
B
Que siento el rey morías por mi
D#m
Y quien soy yo que viste en mí
B                       D#m
Para que tú me ames así

//D#m - B//

2do Verso:
D#m
Tu hijo soy soy tu calor
B
Yo soy quien soy por tu amor
D#m
Es por tu amor que vivo hoy
B
Si vivo hoy lo hago por voz
F#
Y con mi voz declaro yo
C#
Que Tuyo Soy tuyo Señor
F#            D#m
Señor mi Dios mi Salvador
C#                    D#m
Que en una cruz su vida dio

3er Verso: (Sube un tono)
Fm
Cuando te vi me estremecí
C#
Y de rodillas yo caí allí
Fm
Entendí que mi vivir
C#
Yo quería dar todo por ti
G#
Solo por ti y nada más
D#
Yo quiero amarte más y más
G#
Que aquel instante de amor
D#                          G#
Sea eterno entre los dos

CORO:
C#              G#
Yo soy quien soy lo soy por voz
D#             Fm
Aunque me digan loco soy
C#               A#m
Tuyo seré de nadie más
C
Aunque me cueste mi cantar

SOLO:
e)|-----------11---------------11---------------11-------------|
B)|-9-11-9-11----11--9-11-9-11----11--9-11-9-11----11-13-9-----|
G)|------------------------------------------------------------|
D)|------------------------------------------------------------|
A)|------------------------------------------------------------|
E)|------------------------------------------------------------|

e)|-------------16-----------------16--------------------------|
B)|-13-14-13-14----14--13-14-13-14----13-14-13-14--------------|
G)|------------------------------------------------------------|
D)|------------------------------------------------------------|
A)|------------------------------------------------------------|
E)|------------------------------------------------------------|

G#
Y con mi voz declaro yo
D#
Que Tuyo Soy Tuyo Señor
*Pausa*

Final:
G#
Señor mi Dios mi Salvador
D#
Que en una cruz su vida dio
G#
Mi vida doy me entrego hoy
D#
En alma y cuerpo Tuyo Soy
C#               G#
Entre tú y yo solo los dos
D#               Fm
Mi fiel amante mi razón
C#                A#m
Tuyo seré de nadie más
C                          Fm - C# - Fm - C# - Fm
Aunque me cueste mi cantar


Saludos...

More chords by Alex Campos: