Alceu Valença - Anunciação Guitar Chords

Alceu Valença

bossa nova, forro, manguebeat, mpb

Chords: G, Am, C, G7, Em7, F
 G                                       Am
   Na bruma leve das paixões que vem de dentro
                          C              G
Tu vens chegando prá brincar no meu quintal
                                  Am
No teu cavalo peito nu cabelo ao vento
                         C           G
E o sol quarando nossas roupas no varal     (2x)

Refrão 2x:
    G7      Em7
Tu vens tu vens
F          C              G
  Eu já escuto os teus sinais

                               Am
A voz do anjo sussurrou no meu ouvido
                      C              G
E eu não duvido já escuto os teus sinais
                             Am
Que tu virias numa manhã de domingo
                   C              G
Eu te anuncio nos sinos das catedrais




E|--------7--8--7-----------------------------7--8--7---------------------------|
B|-8--10-----------12p8-10p8---8-10-8-10--8-10--------12p8-10p8--10/12-10/8-8-8-|
G|---------------------------9----------------------------------9---------------|
D|------------------------------------------------------------------------------|
A|------------------------------------------------------------------------------|
E|------------------------------------------------------------------------------|



E|--------7--8--7--------------------------------7--8--7---------------------------|
B|-8--10-----------12p8-10p8---8-10-8-10b12--8-10--------12p8-10p8--10/12-10/8-8-8-|
G|---------------------------9-------------------------------------9---------------|
D|---------------------------------------------------------------------------------|
A|---------------------------------------------------------------------------------|
E|---------------------------------------------------------------------------------|

More chords by Alceu Valença: