Alberto Pimentel - Groso Modo Guitar Chords

Chords: C, G, Am, F, C/B, Dm, G7, Fmaj7, Fm, G2, EbGDAE
Gracias por hacer esta calle menos vacía
---


C   (1) G                      Am
Perdona, si ves que soy un poco torpe con la voz,
F         G        C          (2)
si no consigo matizar tu mundo
C/B                 Am             Dm (3)
y mucho menos alumbrar tu rumbo,
                       G7
pero no soy dueño del tiempo ni del sol.

C       (1) G                      Am
No niego, que soy un loco que se empeña en recorrer
F        G             C               (2)
un duro mundo con sus desgarrados pies
C/B                   Am                Dm (3)
y sueña en visitar galaxias en un tren,
                      G7
aunque mis ojos no me alcancen para ver.

C      (1) G                    Am
Te juro, que por más que le dé vuelta a la razón,
F        G            C               (2)
nunca separo de tus manos mi ilusión,
C/B                                 Am                Dm (3)
es que es mi invierno quien siempre vuelve a tu calor,
                      G7                  F  (4)
aunque lo diga a groso modo ... esta canción.

Am F (4) Am Fmaj7

F                          G                          C     (1)
Es que aunque sepa más de lluvias que de estrellas esta vez
G                     Am                  Dm (3)
y haya más dudas que respuestas en mi fé
                        F            Fm          G
es más sencillo si acompañas con tus pasos mi labor.

C         (1) G                  Am
Bien sabes, que no tengo ninguna máscara en mi afán,
F              G                  C              (2)
que soy el mismo ... que una noche te vio llegar
C/B                         Am             Dm (3)
y sembró en ti todas las ganas de empezar
                    G7
y comenzó a montar cometas al cantar.

G2                         Am
Es que por más que le dé vuelta a la razón,
F        G            C            (2)
nunca separo de tus manos mi ilusión,
                            Am                      Dm (3)
es que es mi invierno que siempre vuelve a tu calor,
                     G7                   F      C (5)
aunque lo diga a groso modo ... esta canción


-FORMAS:
(1):
   C
e|-0----------------------------|
B|-1-----3h1-0---0-------0h1-0--|
G|-0-----------2---2-----0h2-0--|
D|-2-------------------0--------|
A|-3----------------------------|
E|-0-----------------3----------|

(2):
 (C/B)
e|-0--------------|
B|-1-------0h1-0--|
G|-0-------0---0--|
D|-0-----0--------|
A|-2---2----------|
E|-0--------------|

(3):
           (Dm)
e|-------0h1-1--|
B|-----3-----3--|
G|---2-------2--|
D|-0---------0--|
A|--------------|
E|--------------|

(4):
  (F)      (Am)
e|-1--------0--|
B|-1--------1--|
G|-2--------2--|
D|-3--------2--|
A|-3------0----|
E|-1--1h3------|

(5):
  (C)               (C)
e|-0-----------------0--|
B|-1-3-1-0-----------1--|
G|-0-------2-0-------0--|
D|-2-----------3-2-0-2--|
A|-3-----------------3--|
E|-0-----------------0--|


-ACORDES:
       EbGDAE
C:     010230
C/B:   01002X
G:     300023
G2:    334553
G7:    334353
Am:    01220X
Dm:    1230XX
F:     112331
Fmaj7: 0123XX

--

More chords by Alberto Pimentel: