Al-Jadaqui - De Medio Lao Guitar Chords

Chords: G5, Bb5, C, Bb, F, D#
Intro

           riff 1
e--------------------------------------
b--------------------------------------
g--------------------------------------
d-------------------------------------- dos veces
a---3-0-1-3-1-0----3-0-1-3-1-0---------
E-1--------------1---------------------
          riff 1
e--------------------------------------
b--------------------------------------
g--------------------------------------
d---3-0-1-3-1-0---3-0-1-3-1-0----------
a-1-------------1----------------------
E--------------------------------------

verso
  riff 1
Vengo de medio lao y estoy ajumao
porque la vecina de al lao me 
tiene aficiao
        G5      Bb5
porque ella.......

coro

vengo de medio lao y estoy enamorao de
la vecina de al lao a mi me tiene....

verso       C  Bb  F 
 de medio lao 
coro
                F                      D#
y es que la vecina yo la acecho de la noche
a la mañana .......

bebo por ella porque soy estúpido y no me 
atrevo ni a decirle ni hello

More chords by Al-Jadaqui: