Airbag - The Greatest Show On Earth Guitar Chords

Airbag

cumbia pop, rock nacional

Chords: Em, C, D, A
------------------------------------------------------------------------------------------------------------
                                          Artist - Airbag  
                                         *****************
                                 Song - The Greatest Show On Earth
                                ***********************************
                              Album - The Greatest Show On Earth (2013)     
                             *******************************************
                                        Tabbed By - Ayreon77
                                       **********************
------------------------------------------------------------------------------------------------------------
Tuning = Standard


INTRO
******
  GUITAR 1
   Em               C                   Em               C
e|---brbr---------|---brbr------|-----|---brbr---------|---brbr-------------------|
B|-10~~~~~~-7~~-8-|-10~~~~~-----|-----|-10~~~~~~-7~~-8-|-10~~~~~---------s--------|
G|----------------|--------9~~~-|-----|----------------|--------9~~~~~~~-\11~~~~~-|
D|----------------|-------------|-----|----------------|--------------------------|
A|----------------|-------------|-----|----------------|--------------------------|
E|----------------|-------------|-----|----------------|--------------------------|
 |                                                                                |
 |GUITAR 2                                                                        |
e|--------------------------------s---|------------s----------s-------------------|
B|-------------------------------5\15-|----------10\12------12\15~~~~~------------|
G|------------------------------------|-------------------------------------------|
D|------------------------------------|-------------------------------------------|
A|------------------------------------|-------------------------------------------|
E|------------------------------------|-------------------------------------------|

00:29
  Volume = *
   Em C Em C
e|--*----------p--s--h--p----s---h---|--*--------*-|
B|-15~~~~~~~~~~-13\12-13-12~~\-10-12-|-12~~~~~~-10-|
G|-----------------------------------|-------------|
D|-----------------------------------|-------------|
A|-----------------------------------|-------------|
E|-----------------------------------|-------------|


-------------------------
VERSE 1
********
       Em
Do you know who you are

And have you got the strength
   C
To carry on from here
          Em
You don't want to see what's real
                     C
It hurts too much to lose your faith
          Em
Just keep calm and carry on
                    C
An unseen hand will be there when you fall
      Em
Cause we know who you are 
                     C
And we know what you really need


-------------------------
CHORUS
*******
        D
And the sheep will move across the land
               C
Running scared holding hands
           D
As they're getting closer to the edge
                       C
The lights go down and it's too late
                             Em
This is the greatest show on earth


-------------------------
01:55
SMALL SOLO - Em C Em C
***********
  GUITAR 1
   Em               C                   Em               C
e|---brbr---------|---brbr------|-----|---brbr---------|---brbr-------------------|
B|-10~~~~~~-7~~-8-|-10~~~~~-----|-----|-10~~~~~~-7~~-8-|-10~~~~~---------s--------|
G|----------------|--------9~~~-|-----|----------------|--------9~~~~~~~-\11~~~~~-|
D|----------------|-------------|-----|----------------|--------------------------|
A|----------------|-------------|-----|----------------|--------------------------|
E|----------------|-------------|-----|----------------|--------------------------|
 |                                                                                |
 |GUITAR 2                                                                        |
e|--------------------------------s---|------------s----------s-------------------|
B|-------------------------------5\15-|----------10\12------12\15~~~~~------------|
G|------------------------------------|-------------------------------------------|
D|------------------------------------|-------------------------------------------|
A|------------------------------------|-------------------------------------------|
E|------------------------------------|-------------------------------------------|


-------------------------
VERSE 2
********
Em
Step on up you're next in line
                             C
Don't mind the bright lights in your eyes
      Em
Your abused and messed up mind
                  C
Is the only thing we really need


-------------------------
CHORUS
*******
        D
And the sheep will move across the land
               C
Running scared holding hands
           D
As they're getting closer to the edge
                       C
The lights go down and it's too late
                             Em
This is the greatest show on earth


03:03
Em

-------------------------
03:24
SOLO - Em C Em C
*****  Em C Em C
       Em A Em A Em A Em A
       Em C Em C
       Em A Em A Em A D   C   D    C    D    C    D    C    
e|-----------------|----------------------|---------------|--------------|
B|------h---s------|--br---p---h----------|---------------|--------------|
G|--h--7-9-9\11~~~-|-11---9-7-7-9--s------|--s----p-h-----|--s-----------|
D|-7-9-------------|--------------7\9~~~~-|-7\9--7-5-7~~~-|-5\7-9--s-----|
A|-----------------|----------------------|---------------|-------5\7~~~-|
E|-----------------|----------------------|---------------|--------------|
                                Kinda
03:46                           Rake
e|-----------------------------|-----------------------------------------------|
B|--------------------s----br--|---------s-----------b-15--rbp--s---15-------s-|
G|--------s--7---7-9-9\11~~~---|-11-12-12\14--12-14-14----14--12\11----12~~~~\-|
D|--s--5-7\9---9---------------|-----------------------------------------------|
A|-5\7-------------------------|-----------------------------------------------|
E|-----------------------------|-----------------------------------------------|

03:57
e|-UB----------|-UB-----------|
B|-12~~rp~-h---|-12~~rp~--h---|
G|-14~~--12-14-|-14~~~--12-14-|
D|-------------|--------------|
A|-------------|--------------|
E|-------------|--------------|

04:08
e|---p----------p----b-----b-----p-------------------------------------------------|
B|-15-12-15~~-15-12-15~~~-15~~-15-12--b---br--------br----------------------s------|
G|-----------------------------------14--14--12~~~-11--7-------s--s--9-12-12\14~~~-|
D|-------------------------------------------------------9~~~-9\--/9---------------|
A|---------------------------------------------------------------------------------|
E|---------------------------------------------------------------------------------|


e|----------------------------------------|----------------------|---------|
B|---p----b-15--br----------------------s-|-------------b---br---|---b-----|
G|-14-12-14----14--14-12-14-14--14-12-14\-|--s---12-14-14--14-11-|-11--9-7-|
D|----------------------------------------|-9\14-----------------|---------|
A|----------------------------------------|----------------------|---------|
E|----------------------------------------|----------------------|---------|

04:32
e|--------------|---------------------------|---------------------|---------|--h-------brp------|
B|--------------|--s-s----------------------|---------------------|--s------|-8-10-10~~---8~~~~-|
G|--h---s-------|-7\9/7----s--9--s----------|-x--s----p-----s-----|-7\9-9-9-|-------------------|
D|-5-7-7\9~~~~~-|-------9-7\9---9\7-5-------|-x-7\9--7-5-7-7\9~~~-|---------|-------------------|
A|--------------|---------------------7~~~~-|---------------------|---------|-------------------|
E|--------------|---------------------------|---------------------|---------|-------------------|

04:53
e|---p-----------p----b---12~~-----p--------------------------------------------|
B|-15-12-15~~~-15-12-15~~--------15-12--b---br-------br---------------------b---|
G|-------------------------------------14--14-12~~~-11--7-------s---s-9-12-12~~-|
D|--------------------------------------------------------9~~~-9\--/9-----------|
A|------------------------------------------------------------------------------|
E|------------------------------------------------------------------------------|


e|----------------------------------------|----------------------|---------------------|
B|---p----b-15--br----------------------s-|-------------b---br---|---b-----------------|
G|-14-12-14----14--14-12-14-14--14-12-14\-|--s---12-14-14--14-11-|-11--9-7~~~~~~~~~~~~-|
D|----------------------------------------|-9\14-----------------|---------------------|
A|----------------------------------------|----------------------|---------------------|
E|----------------------------------------|----------------------|---------------------|


05:18
  GUITAR 2   Ect......Ect......Ect.....
e|---------5-------3-----2-------|---------5-------3-----2-------|
B|-----3-----3---3---3-----3---3-|-----3-----3---3---3-----3---3-|
G|---2---2-----2-------2-----2---|---2---2-----2-------2-----2---|
D|-0-----------------------------|-0-----------------------------|
A|-------------------------------|-------------------------------|
E|-------------------------------|-------------------------------|


                                      
  05:18                                     05:29
  GUITAR 2                                    p
e|------------------------------------------17-14-17~~~~~~~~---b-rp-----------------|
B|-15~~~~~~~~~~~~~~~~~~~~~~~~~~~~~~~~~~~~~--------------------17---15-17-15-15~~~~~-|
G|----------------------------------------------------------------------------------|
D|----------------------------------------------------------------------------------|
A|----------------------------------------------------------------------------------|
E|----------------------------------------------------------------------------------|

                                     05:45
e|--------------b-rp-----p----------|----------------------b------r-------------|---------------|
B|---s---15-17-17---15-17-15-15~~~~-|-b-rp---p------------10~~~~~~~10~~~~~~~~~~-|-b-10-rb-------|
G|-12\14----------------------------|-9---7-9-7-7~~~~~~~------------------------|-9----9--7~~~~-|
D|----------------------------------|-------------------------------------------|---------------|
A|----------------------------------|-------------------------------------------|---------------|
E|----------------------------------|-------------------------------------------|---------------|
 

-------------------------
06:04
CHORUS
*******
        D
And the sheep will move across the land
               C
Running scared holding hands
           D
As they're getting closer to the edge
                       C
The lights go down and it's too late
                             Em
This is the greatest show on earth


Em A Em A Em A Em A Em



ENJOY.........

More chords by Airbag: