Airbag - Mecanismo De Control Guitar Chords

Airbag

cumbia pop, rock nacional

Chords: B, A#, A, G, E
D# -----------------------------------------------
A# -----------------------------------------------
F# -----------------------------------------------
C# ---------------------------------------------5-   Repetir 3 veces.
G# --7-5-7--5-7-5-7-5-7-5--7-5-7---5-7-5-7-5-7----
D# -5------5--------------5------5----------------

  B - A# - A - G - E _Repetir 3 Veces

  B - A# - A .

E
 Déjame pasar
G
 déjame sentir
A
 no ves que veo
E
 veo todo desde aqui

G# -7-6-5------
D# -------7-6-5

E
 Yo quiero entrar
G
 en tu habitación
A
 y por un rato

 no escuchar tu
 B  A# A  G  E
 no no no no no...
 B  A# A  G  E
 no no no no no...
 B  A# A  G  E
 no no no no no...
 B  A# A  G  E
 no no no no no...

E
 Y todo lo verás
G
 y todo lo sabrás
A                 E
 sentado en tu sillon

G# -7-6-5------
D# -------7-6-5

E
 Y todo alcanzarás
G
 y todo lo tendrás
A               E
 en tu imaginación

Dejá de grabar
por que me seguís
tu paranoia
no me deja existir

Qué es lo que buscas
qué sabes de mi
fijo en el lente y digo
no no no no no...
no no no no no...
no no no no no...
no no no no no...

Y todo lo verás
y todo lo sabrás
sentado en tu sillon
y todo alcanzarás
y todo lo tendrás
en tu imaginación

Y todo lo verás
y todo lo sabrás
sentado en tu sillon

Y todo alcanzarás
y todo lo tendrás
en tu imaginación

Y de mas queda lo que digo
y serás tu único enemigo
sin tener tu conexión

Y verás todo lo que fuimos
y sabrás todo lo que hicimos
como una conspiración
conspiración
conspiración


Espero qe les sirva ATT: Cristian Borgert

More chords by Airbag: