Aerosmith - Seasons Of Wither Guitar Chords

Aerosmith

album rock, classic rock, hard rock, rock

Chords: Gm, Am7, Bb6, C, D, Bb, F, Em7add4, F6/9, D/F#, G, G/B, G7sus2, Gm7, C7/G, Cadd9
ORDER: I RI V1 C INT1 B V2 C INT2 O


[INTRO]

e|-----------------|-----------------|
B|-----------------|-----------------|
G|-----0-----0-----|-----0-----0-----|
D|---0-----0-----0-|---2-----3-----3-| x6
A|-------1---------|-0-----1-----1---|
E|-3-----------3---|-----------------|
   Gm                Am7   Bb6

e|-----------------|-----------------|
B|-----------------|-----------------|
G|-----0-----0-----|-----0-----0---0-|
D|---0-----0-----0-|---2-----3-------|
A|-------1---------|-0-----1-----3---|
E|-3-----------3---|-----------------|
   Gm                Am7   Bb6   C


    1 2 3 4
D | D  D C  |
D | D  D C  |
D | D  D C  |
    123456 789
D | D  C Bb F  |


[RIFF INTRO]

e|-----------------|-----------------|-----------------|-----------------|
B|-----------------|-----------------|-----------------|-----------------|
G|-----2-----0-----|-----2-----0-----|-----2-----2-----|-----0-----0-----|
D|---0-----0-----0-|---0-----0-----0-|---0-----0-----0-|---0-----0-----0-|
A|-----------------|-----------------|-----------------|-----------------|
E|-0-----0-----0---|-1-----1-----1---|-2-----2-----2---|-3-----3-----3---|
   Em7add4           F6/9              D/F#              G



[VERSE 1]
Em7add4         F6/9   D/F#            G
Loose   hearted lady   sleepy was she
Em7add4      F6/9     D/F#             G
Love for the de - vil brought her to me
Em7add4    F6/9        D/F#            G
Seeds of a thou - sand drawn to her sin
Em7add4    F6/9        D/F#            G | |
Seasons of wi  -  ther holdin' me in


[CHORUS]
C            G/B            Em7add4 F6/9          G
Ooh woe is me   I feel so bad     -     ly for you
C            G/B            Em7add4 F6/9          G
Ooh woe is me   I feel so sad    -      ly for you
                     G7sus2
In time bound to lose      your mind
           Gm7
Live on bor - rowed time
             C7/G                  D
Take the wind    right out of your sail


[INTERLUDE 1]
        1 2 3 4
( D ) | D  D Cadd9  |

D | D  D C  |


[BRIDGE]
D                D       D    Cadd9
  Fireflies dance in the heat of
D                    D       D   Cadd9
  Hound dogs that bay at the moon
D               D       D  Cadd9
  My ship leaves in the midnight
D               D   Cadd9 F   Em7add4
  Can't say I'll be back  too soon


[VERSE 2]
(with riff)
Em7add4       F6/9     D/F#            G
...     They awa - ken far, far away
Em7add4    F6/9    D/F#                G
Heat of my candle, show me the way
Em7add4    F6/9        D/F#            G
Seeds of a thou - sand drawn to her sin
Em7add4    F6/9        D/F#            G | |
Seasons of wi  -  ther holdin' me in


[CHORUS]
C            G/B            Em7add4 F6/9          G
Ooh woe is me   I feel so bad     -     ly for you
C            G/B            Em7add4 F6/9          G
Ooh woe is me   I feel so sad    -      ly for you
                     G7sus2
In time bound to lose      your mind
           Gm7
Live on bor - rowed time
             C7/G                  D
Take the wind    right out of your sail


[INTERLUDE 2]
        1 2 3 4
( D ) | D  D Cadd9  |

D | D  D C  |
D | D  D C  |
    123456 789
D | D  C Bb F  |


[OUTRO]

e|-----------------|-----------------|-----------------|
B|-----------------|-----------------|-----------------|
G|-----2-----0-----|-----2-----0-----|-----2-----2-----|
D|---0-----0-----0-|---0-----0-----0-|---0-----0-----0-|
A|-----------------|-----------------|-----------------|
E|-0-----0-----0---|-1-----1-----1---|-2-----2-----2---|
   Em7add4           F6/9              D/F#

e|-----------------|-----------------|
B|-----------------|-----------------|
G|-----0-----0-----|-----0-----0-----|
D|---0-----0-----0-|---2-----3-----3-| x3
A|-------1---------|-0-----1-----1---|
E|-3-----------3---|-----------------|
   Gm                Am7   Bb6

e|-----------------|-----------------|-2-|
B|-----------------|-----------------|-3-|
G|-----0-----0-----|-----0-----0-0---|-2-|
D|---0-----0-----0-|---2-----3-------|-0-|
A|-------1---------|-0-----1-----3---|---|
E|-3-----------3---|-----------------|---|
   Gm                Am7   Bb6   C     D

More chords by Aerosmith: