Aerosmith - My Fist Your Face Guitar Chords

Aerosmith

album rock, classic rock, hard rock, rock

Chords: D5, E5, B, A, E, D, C#, G#, C, G
[Intro]
D5 E5 E5 E5 E5 E5 D5 D5 D5 D5 D5 (x4)

[Verse 1]

B             A
Wake up baby, what you in for
B         A             E
Start the day upon your knees
B                       A
What you pissing in the wind for
B             A                E
You must have snorted too much blees

[Pre-Chorus]

A                          E
East house pinball wizard, Full tilt bozo played
A                                              E
Second floor trekkie making warp speed out the door
A                         E
Julio Anpacolucci, he the only one who stayed
D
Countin up the days, please no more

[Riff]
e|-------------------------|
B|-------------------------|
G|-------------------------|
D|---------2---------2-----|
A|-------------------------|
E|-0-3-0-3---0-3-0-3-------|

[Chorus]
D
My Fist Your Face, that's for sure

[Riff]
e|-------------------------|
B|-------------------------|
G|-------------------------|
D|---------2---------2-----|
A|-------------------------|
E|-0-3-0-3---0-3-0-3-------|

D A C# G# C G E

[Verse 2]

B                         A
Hey Betty Boop you got me drooling
B            A               E
I'm buzzing 'round your hive tonight
B                              A
You played the hooky 'stead of schooling
B        A                 E
Son of a bitch put out the light

[Pre-Chorus]

A                               E
Thirteen year old hookers, drag yourself right through the thorns
A                                     E
You wonder why the man's outside your door
A                         E
Junior achievers, got the old bull by the horns
D
Back in the saddle get you sore

[Riff]
e|-------------------------|
B|-------------------------|
G|-------------------------|
D|---------2---------2-----|
A|-------------------------|
E|-0-3-0-3---0-3-0-3-------|

[Chorus]
D
My Fist Your Face, that's for sure! Yeah!

[Riff]
e|-------------------------|
B|-------------------------|
G|-------------------------|
D|---------2---------2-----|
A|-------------------------|
E|-0-3-0-3---0-3-0-3-------|

D A C# G# C G E

e|-------------------------|
B|-------------------------|
G|-------------------------|
D|---------2---------2-----|
A|-------------------------|
E|-0-3-0-3---0-3-0-3-------|

D A C# G# C G E

[Solo]

B    A    B  A  E
B    A    B  A  E

[Pre-Chorus]

A                          E
East house pinball wizard, Full tilt bozo played
A                                              E
Second floor trekkie making warp speed out the door
A                         E
Julio Anpacolucci, he the only one who stayed
D
Countin up the days, please no more

[Riff]
e|-------------------------|
B|-------------------------|
G|-------------------------|
D|---------2---------2-----|
A|-------------------------|
E|-0-3-0-3---0-3-0-3-------|

[Chorus]
D
My Fist Your Face, that's for sure!
D A C# G# C G E
D A C# G# C G E
My Fist Your Face, that's for sure!
D A C# G# C G E
My Fist Your Face, that's for sure!

More chords by Aerosmith: