Aerosmith - Love In An Elevator Guitar Chords

Aerosmith

album rock, classic rock, hard rock, rock

Chords: Em, D/F#, G, C, A, A/C#, D, E, B, Bb
-------------------------------------------------------------------------------
                      "Love In An Elevator", Aerosmith
-------------------------------------------------------------------------------
·Tabbed by: Sebastián Arashiro
·Buenos Aires, Argentina, 2009
·Email MSN: playing.the.angel_@hotmail.com
Tuning: EADGBe (Normal)

Chords Diagram:
e|0--x----3-0-0--x----2-0-2-1------|
B|0--3----3-1-2--2----3-0-4-3------|
G|0--2----0-0-2--2----2-1-4-3------|
D|2--0----0-2-2--2----0-2-4-3------|
A|2--0----2-3-0--4----x-2-2-1------|
E|0--2----3-0-x--x----x-0-x-x------|
  Em D/F# G  C A A/C# D E B Bb

[Intro]

(so, for the Intro you could just play Em, but it doesn't fit
very well, therefore it's better to just play the Intro):
e|------------------------------------|
B|------------------------------------|
G|------------------------------------|
D|--4--0--2-----0---------------------|
A|-----------2-----2p1p0---0---2------|
E|-----------------------3---3--------|(0)

Then:

 D
"Yeah..!!"


[Verse]

 Em            D/F#        G        C
"Workin like a dog for the boss-man
Em             D/F#  G   C
Workin for the company
   Em            D/F#    G       C
Im bettin on the dice Im tossin
   Em           D/F#  G  C
Im gonna have a fantasy"


[Pre-Chorus]

     A          A/C#  D    E
"But where am I gonna look
     A            A/C#    D     E
They tell me that love is blind
  A             A/C#         D    E
I really need a girl like an open book
  A       D         E
To read between the lines!"


[Chorus]

 B             A
"Love in an elevator
B                   A
Livin it up when Im goin down
B             A
Love in an elevator
B                  B   Bb  A
Lovin it up till I hit the ground!"


[Verse 2]

 (Same chord progression as verses before):
"Jackies in the elevator,
Lingerie second floor
She said Can I see you later?
And love you just a little more?


[Pre-Chorus]

"I kinda hope we get stuck,
Nobody gets out alive.
She said Ill show you how to fax
In the mailroom, honey
And have you home by five!"


[Chorus]

 B             A
"Love in an elevator
B                   A
Livin it up when Im goin down
B             A
Love in an elevator
B                  B   Bb  A
Lovin it up till I hit the ground!
       E                   B
(In da air, In the air, in ????????)
B             A
Love in an elevator
B                  B   Bb  A
Lovin it up till I hit the ground!"


[Solo]

(play the Intro)
At 1:38 play the A chord, then D, then go back to the Intro Riff.
At 1:57 to the same.

2:03 
(Play the E chord)
"Love in an..!"


[Riff]

Then it comes this riff.
E|----------------------------------------------------------------|
B|----------------------------------------------------------------|
G|----------------------------------------------------------------|
D|----------------------------------------------------------------|
A|----------------------------------------------------------------|
E|-0-0-0-0h4p0-0h5p0-0h6p0h7p0h9h10--0h4p0-0h5p0-0h6p0-7p0h9h10---|


[Chorus]

 B             A
"Love in an elevator
B                   A
Livin it up when Im goin down
B             A
Love in an elevator
B                  B   Bb  A
Lovin it up till I hit the ground!"


[Verse]

"Gonna be a penthouse pauper!
Gonna be a millionare
Im gonna be a real fast talker
And have me a love affair"


[Pre-Chorus]

"Gotta get my timin right
Its a test that I gotta pass
Ill chase you all the way to stairway, honey
Kiss your sassafrass"


[Chorus]

"Love in an elevator
Livin it up when Im goin down
Love in an elevator
Lovin it up till I hit the ground!
       E                   B
(In da air, In the air, in ????????)
Love in an elevator
Lovin it up till I hit the ground!"
  

************************************

| x  Dead note
| h  Hammer-on
| p  Pull-off

************************************

More chords by Aerosmith: