Abeja - El Desayuno Guitar Chords

Chords: F, Am, Em, G, F#, A, D
ES LA PRIMER TRASNCTIPICION QUE ENVIO,
ES UNA BUENA ROLA,TOQUEN LA CON 2 GUITARRAS PARA QUE SUENE
MAS CHINGON, AHI LAS VA:

INTRO

F, Am Em Em     x2  INTRO
E----------------------I----------------------I
B----------------------I----------------------I
G--5---2-5---5---------I--5---2-5---5---------I
D--------------5---2-5-I--------------5---2-5-I
A----------------------I----------------------I
E----------------------I----------------------I

F [RIFF 1]

Es temprano,
Am
Y tú  ya quieres irte,
Em
Yo te digo que  no te vayas,
Em
Sin almorzar.

F [RIFF 1]
Estas parado,
   Am
Alado de la puerta,
Em
Yo te veo enojada,
Em
Al no poderte quedar

SOLO
G, F#, Em
E---------------------------------------------I
B-----12-15-17-15--10/12--10-----10/12--10----I
G--12------------------------12------------12-I
D---------------------------------------------I
A---------------------------------------------I
E---------------------------------------------I
G, F#, Em
E----------------------------13/15-14-12-10----------I
B-----12-15-17-15--12/15--12----------------12-10----I
G--12---------------------------------------------12-I
D----------------------------------------------------I
A----------------------------------------------------I
E----------------------------------------------------I

F [RIFF 2]
Tú te sientas,
Am
Junto a mí,
                 Em
Mientras el gato pide las te,
    Em
Y con tu sonrisa lo vez.

F [RIFF 1]
Yo me levanto,
Am
Y preparo la mesa,
Em
Con un lindo mantel,
     Em
De cuadros rojo  con miel.

SOLO

G[RIFF 3]   A
Me  ofreces que me quede,
     D
Y me haces un hotcake,
   G
Con un rico café.
A  [RIFF 4]    F#
Me ofreces que me quede,
     G
Y tú te sientas,
  A
Junto A mí.  A, G, F#, Em.

G, F#, Em.G, F#, Em.
SE REPITE EL SOLO

F, Am, Em, Em
Y AQUI EL INTRO
F, Am, Em [aquí termina  con un rasgueo hacia abajo]


[RIFF 1] Se toca mientras se canta
E----------------------12-
B-13----13----12----12----
G----14----14----12-------
D-------------------------
A-------------------------
E-------------------------
[RIFF 2]
E--------------------------12-
B-----13----13----12----12----
G-12----14----14----12--------
D-----------------------------
A-----------------------------
E-----------------------------
[RIFF 3]
E--------------------I----------------------I-----------------------I
B----15-12----17-14--I-14-16-14-16-14-16-14-I--14-16-14-16-14-16-14-I
G-12-------14--------I----------------------I-----------------------I
D--------------------I----------------------I-----------------------I
A--------------------I----------------------I-----------------------I
E--------------------I----------------------I-----------------------I
[RIFF 4]
E----------------------I----------------------I
B----------------------I----------------------I
G----------------------I----------------------I
D-12-14-12-14-12-14-12-I-14-16-14-16-14-16-14-I
A----------------------I----------------------I
E----------------------I----------------------I

E----------------------------------------14-18-14I
B--------------------------12-16-12-12/14--------I
G---------16-14-12-11-9/12-----------------------I
D---13-16----------------------------------------I
A-9----------------------------------------------I
E------------------------------------------------I

E---------------------I
B---------------------I
G---------------------I
D---------------------I
A---------------------I
E-2/5-5--3-3--2-2--00-I


Rasgueo  (2 POR ACORDE, EN ALGUNOS CASOS 1, ESCUCHEN LA ROLA Y SALE)
6----|---|---^---^---|---
5----|---|---|---|---|---
4----|---|---|---|---|---
3----|---|---|---|---|---
2----|---|---|---|---|---
1----v---v---|---|---v---

ESPERO Y LA DISFRUTEN, DEPARTE DE TODA LA BANDA( GUS, PEPE,
 QUIKE, DAVID Y YO) .
SALUDOS AL C.C.H. VALLEJO, EN ESPECIAL AL TALLER DE GUIATARRA.
ALGUA DUDA MANDENME UN MAIL.

More chords by Abeja: