A Rocket to the Moon - Mr Right Guitar Chords

A Rocket to the Moon

alternative pop rock, emo, neo mellow, pixie

Song versions: 1 2 3 4 5
Chords: A, E, B, C#, F#, G#, D
No Capo

Chords Used
  A     E     B     C#    F#    G#
E|X-----0-----X-----X-----X-----4
B|0-----2-----2-----4-----4-----6
G|2-----2-----4-----6-----4-----6
D|2-----1-----4-----6-----2-----X
A|0-----0-----0-----0-----0-----X
E|0-----0-----0-----0-----0-----X

Intro Tabs:
E|-----0-----0-------0-----0------0------0------0------0-|
B|-------------------------------------------------------|
G|---6------4-----2------4-------------------------------|
D|-7------6-----4------6--------6------6------4------4---|
A|----------------------------4------4------2------2-----|
E|-------------------------------------------------------| X3
My girlfriend's got a boyfriend, funny
He doesn't make a dime all day
And all her girlfriends' boyfriends make money
What more can I say?

     A    E B
It's true
         C#      B         A     E
He never made it through a day of school
B                 C#      B   A   E B
The only thing he studied was you
              C#   B      A           B (let Ring)
He knows your body better than you do

Chorus:
E              B       A
Maybe I'm your Mr. Right
C# B  E             B          A  B
Baby, maybe I'm the one you like
E           B            A
Maybe I'm a shot in the dark
               C#    B     F#
And you're the morning light
   A
Whoa
E             B       A
Maybe this is sad but true
C# B  E            B              A    B
Baby, maybe you've got nothing to lose
E   B        A        E
You could be the best of me
C#       B             
When I'm the worst for you

Verse:
E|-----0-----0-------0-----0------0------0------0------0-|
B|-------------------------------------------------------|
G|---6------4-----2------4-------------------------------|
D|-7------6-----4------6--------6------6------4------4---|
A|----------------------------4------4------2------2-----|
E|-------------------------------------------------------| X3
My girlfriend's got a boyfriend, running
To catch the bus to meet
To meet up with the boyfriend's girlfriend
Who's stunning
She's such a sight to see

     A   E B
It's true
           C#       B       A      E
The moment he layed eyes on you he knew
B                C#     B    A   E  B
The only wish he wanted came true
              C#   B        A                B (ring)
He knows he's lucky that he met someone like you

Chorus:
E              B       A
Maybe I'm your Mr. Right
C# B  E             B          A  B
Baby, maybe I'm the one you like
E           B            A
Maybe I'm a shot in the dark
               C#    B     F#
And you're the morning light
   A
Whoa
E             B       A
Maybe this is sad but true
C# B  E            B              A    B
Baby, maybe you've got nothing to lose
E   B        A        E
You could be the best of me
C#       B             C#
When I'm the worst for you

Bridge:
G#                         A  E
You can always change your mind
    C# G#            B
And you can't change mine

Chorus:
E              B       A
Maybe I'm your Mr. Right
C# B  E             B          A  B
Baby, maybe I'm the one you like
E           B            A
Maybe I'm a shot in the dark
               C#    B     F#
And you're the morning light
   A
Whoa
E             B       A
Maybe this is sad but true
C# B  E            B              A    B
Baby, maybe you've got nothing to lose
E   B        A        E
You could be the best for me
C#       B             E
When I'm the worst for you
C#  B
I'm the worst for you

Outro Tabs
E|-----0-----0-------0-----0------0------0------0------0-|
B|-------------------------------------------------------|
G|---6------4-----2------4-------------------------------|
D|-7------6-----4------6--------6------6------4------4---|
A|----------------------------4------4------2------2-----|
E|-------------------------------------------------------| X2
Slowing down and fading out and end with E chord

Questions or Suggestions?
Kik me @ Jzdawson

More chords by A Rocket to the Moon: