A Rocket to the Moon - If Im Gonna Fall In Love Guitar Chords

A Rocket to the Moon

alternative pop rock, emo, neo mellow, pixie

Song versions: 1 2
Chords: D, A, C#m, F#m, E, B
[Intro & Verse]
E|-----------------------------|
B|-2-----4-----3-----2---------|
G|-2-----4-----2-----2---------|
D|-2-----2-----2-----2---------|
A|-----------------------------|
E|-----------------------------|

[Verse]
I'm gonna take my time
Make sure that the feeling's right
Instead of staying up all night
Wondering where you are
Miles and miles away
In a town in another state
I wanna know if you just can't take
The thought of us apart

[Chorus]
D      A     
If I'm gonna fall in love
        C#m           F#m
There's gotta be more than just enough
D           A
I gotta get that old feeling
F#m         E
I gotta get that old high
D   A
You gotta love to roll
C#m             F#m
Gotta live life like a rolling stone
D           A
I gotta get that old feeling
F#m         E
I gotta get that old high

[Instrumental]
E|-----------------------------|
B|-2-----4-----3-----2---------|
G|-2-----4-----2-----2---------|
D|-2-----2-----2-----2---------|
A|-----------------------------|
E|-----------------------------|

[Verse]
I come from an empty town
Far away from the city sounds
I'd like to settle down someday
And I need to know your past
Something that'll take you back
'cause I wanna live like that one day

[Chorus] 
D      A     
If I'm gonna fall in love
        C#m           F#m
There's gotta be more than just enough
D           A
I gotta get that old feeling
F#m         E
I gotta get that old high

D   A
You gotta love to roll
C#m             F#m
Gotta live life like a rolling stone
D           A
I gotta get that old feeling
F#m         E
I gotta get that old high

[Bridge]
B A B A-E (power chords)
I can't stop wondering why
You're taking so long to find
Maybe I should just let go
But baby all I know...

[Chorus]
D      A     
If I'm gonna fall in love
        C#m           F#m
There's gotta be more than just enough
D           A
I gotta get that old feeling
F#m         E
I gotta get that old high
D   A
You gotta love to roll
C#m             F#m
Gotta live life like a rolling stone
D           A
I gotta get that old feeling
F#m         E
I gotta get that old high

E|-----------------------------|
B|-2-----4-----3-----2---------|
G|-2-----4-----2-----2---------|
D|-2-----2-----2-----2---------|
A|-----------------------------|
E|-----------------------------|

More chords by A Rocket to the Moon: