A.Q.M. - Yo Soy Aquel Guitar Chords

Song versions: 1 2 3
Chords: Em, C, Am, B7, G, D, Am7, Bm
Muy buen cover de este duo argentino

La cancion esta correcta casi al 100%, aun hay un cambio que es
una variante de Do mayor, pero la neta no lo pude encontrar.
Aun asi suena bastante aceptable, que la disfruten.


INTRO

   Em        C   Am         B7
e|------------|----------------|
B|------------|----------------|
G|------------|----------------|
D|------------|----------------|
A|------------|-----------2----|
E|---0--3--0--|-----0--3-------|


        Em             G           D
Yo soy aquel que cada noche te persigue
        Am             Am7          Em
yo soy aquel que por quererte ya no vive
             C D
el que te espera
           Bm Em
el que te sueña
            C         D          Em          B7
el que quisiera ser dueño de tu amor de tu amor

        Em              G           D
yo soy aquel que por tenerte da la vida
        Am               Am7           Em
yo soy aquel que estando lejos no te olvida
             C D
el que te espera
           Bm Em
el que te sueña
           C          D            Em
aquel que reza cada noche por tu amor


          C     D         Em
y estoy aqui aqui para quererte
         C    D          Em
estoy aqui aqui para adorarte
           C    D         Em
yo estoy aqui aqui para decirte
         C             B7
que como yo nadie te amo


PUENTE:

e|------------------|---------------------|----------------|
B|------------------|---------------------|----------------|
G|------------------|-------5-4-----------|----------------|
D|------------4-5---|---4-5-----7-5-------|---4-5-5-4---4--|
A|------5p7-7-----3-|-7---------------5p7-|-7---------7----|
E|-0-0--------------|---------------5-----|----------------|


        Em              G           D
yo soy aquel que por tenerte da la vida
        Am                Am7          Em
yo soy aquel que estando lejos no te olvida
             C D
el que te espera
           Bm Em
el que te sueña
           C          D            Em
aquel que reza cada noche por tu amor


          C     D         Em
y estoy aqui aqui para quererte
         C    D          Em
estoy aqui aqui para adorarte
           C    D         Em
yo estoy aqui aqui para decirte
  C  D    G Em    C  D    Em
amoooor amoooor amoooor amooooor


|----"Lo siguiente va a contratiempo"----|

SALIDA:

        C          D              G
e|-3--3--3--3--5--5--5--5--3----3----3--3-|
B|-5--5--5--5--7--7--7--7--3----3----3--3-|
G|-5--5--5--5--7--7--7--7--4----4----4--4-|
D|-5--5--5--5--7--7--7--7--5----5----5--5-|
A|-3--3--3--3--5--5--5--5--5----5----5--5-|
E|-3--3--3--3--5--5--5--5--3----3----3--3-|

More chords by A.Q.M.: