a-ha - Here I Stand And Face The Rain Guitar Chords

a-ha

dance rock, new romantic, new wave, new wave pop

Chords: F#m, D, E, Bm, G, A, B, C#m
[Intro]

     F#m D   E

E|---4-5-4-5-4-5----|
B|------------------|
G|------------------|   x3
D|------------------|
A|------------------|
E|------------------|

     F#m D   E

E|---4-5-4-5-7-9-|
B|---------------|
G|---------------|
D|---------------|
A|---------------|
E|---------------|

     Bm   G    A

E|---9-10-9-10-9-10----|
B|---------------------|
G|---------------------|   x3
D|---------------------|
A|---------------------|
E|---------------------|

     Bm   G    A

E|---9-10-9-10-12-14-|
B|-------------------|
G|-------------------|
D|-------------------|
A|-------------------|
E|-------------------|

     F#m   D     E
     Aaaaaaaaaaaaaaaaaahhh...

E|---14-15-14-15-14-15----|
B|------------------------|
G|------------------------|   x3
D|------------------------|
A|------------------------|
E|------------------------|

     B                G                  Bm

E|---18---15----15-18--17---13----13-17--15~-|
B|-----------15----------------13------------|
G|-------------------------------------------|
D|-------------------------------------------|
A|-------------------------------------------|
E|-------------------------------------------|

 Bm      C#m
Help me
    D         E
I need your love
    Bm        C#m
Don't walk away
           D         E
The dark scares me so
        Bm          C#m
We're nothing apart
       D         E       Bm  C#m
Let's stay friends forever
      D  E
Forever


[Chorus]
F#m      D       E          F#m
Here I stand and face the rain
  D           E        Bm    G      A      Bm
I know that nothing's gonna be the same again
   G       A      B   G    Bm    
C#m   D    E
I fear for what tomorrow brings


  Bm    C#m
Trust me
      D     E
For whom I am
   Bm           C#m
Place all your faith
   D        E
Into these hands
         Bm        C#m
I got nothing to say
        D         E       Bm   C#m
But let's stay friends forever
    D    E
Forever

[Chorus]
F#m      D       E          F#m
Here I stand and face the rain
  D           E        Bm    G      A      Bm
I know that nothing's gonna be the same again
   G       A      B   G
I fear for what tomorrow


F#m      D       E          F#m
Here I stand and face the rain
  D           E        Bm    G      A      Bm
I know that nothing's gonna be the same again
   G       A      B   G    Bm     
C#m     D     E    Bm
I fear for what tomorrow  brings

[Bridge]

F#m      D       E          F#m  D  E
Here I stand and face the rain
  F#m       D         E     F#m    D    E
I know that nothing's gonna be the same
 F#m   D  E
Again

[Instrumental]
     F#m D   E

E|---4-5-4-5-4-5----|
B|------------------|
G|------------------|   x3
D|------------------|
A|------------------|
E|------------------|

     F#m D   E

E|---4-5-4-5-7-9-|
B|---------------|
G|---------------|
D|---------------|
A|---------------|
E|---------------|

     Bm   G    A

E|---9-10-9-10-9-10----|
B|---------------------|
G|---------------------|   x3
D|---------------------|
A|---------------------|
E|---------------------|

     Bm   G    A

E|---9-10-9-10-12-14-|
B|-------------------|
G|-------------------|
D|-------------------|
A|-------------------|
E|-------------------|

     F#m   D     E

E|---14-15-14-15-14-15----|
B|------------------------|
G|------------------------|   x3
D|------------------------|
A|------------------------|
E|------------------------|

F#m      D       E          F#m  D  E
Here I stand and face the rain

Bm  G  A

  F#m       D         E     F#m    D    E
I know that nothing's gonna be the same
 Bm  G  A
Again

[Outro]
     F#m D   E

E|---4-5-4-5-4-5----|
B|------------------|
G|------------------|   x3
D|------------------|
A|------------------|
E|------------------|


     F#m D   E

E|---4-5-4-5-7-9-|
B|---------------|
G|---------------|
D|---------------|
A|---------------|
E|---------------|

     Bm   G    A

E|---9-10-9-10-9-10----|
B|---------------------|
G|---------------------|   x3
D|---------------------|
A|---------------------|
E|---------------------|

     Bm   G    A

E|---9-10-9-10-12-14-|
B|-------------------|
G|-------------------|
D|-------------------|
A|-------------------|
E|-------------------|

     F#m   D     E

E|---14-15-14-15-14-15----|
B|------------------------|
G|------------------------|   x3
D|------------------------|
A|------------------------|
E|------------------------|

More chords by a-ha: