A Giant Dog - Sex Drugs Guitar Chords

A Giant Dog

austindie

Chords: C#, F#, B, Ab, Bb, D
Artist: A Giant Dog
  Song: Sex & Drugs
 Album: Pile
 
[Intro]
e|---------------   ------------------|
B|---------------   ------------------|
G|---------------   ------------------|
D|-------4----4--   ---------4----4---|
A|----4h6--4h6---   --4h6-4h6--4h6----|  x3
E|---------------   ------------------|
     C#

Verses played as power chords with a blues shuffle
[Verse Rhythm]
e|------------------------------------------|
B|------------------------------------------|
G|------------------------------------------|
D|------------------------------------------|
A|----6-6-8-6--6-6-8-6--9-9-11-9--6-6-8-6---| 
E|----4-4-4-4--4-4-4-4--7-7-7--7--4-4-4-4---|
     F#                B         F#
            

F#                             B   F#
Let me see the future before I go
F#                              B   F#
Let my friends all die before I go
Ab    Bb   B       D   F#
Cause I'm too old to die young
  B           D            F#           (alt.  B Bb Ab F# x2)
I cant even remember being young
F#                                   B
Let them play like you this rock and roll
F#                                  B    F#
Let them dance away their heart and soul
Ab      Bb   B      D   F#
Cause I'm too old to die young
  B           D            F#
I cant even remember being young
 
[Intro riff]
 
F#                                
Well the sex the drugs 
F#
We were getting from thugs
F#
And all the people we fucked
F#
All the hippies who sucked
B
All the hearts will be broke
B
All the liquor and the coke
F#
All the weed that we smoked 
F#
We were so hungry and broke
         C#                          B              F#
We can't tell all our kids about the things that we did

   B           D            F#
We cant even remember being young x4

More chords by A Giant Dog: