A Day to Remember - If It Means A Lot To You Guitar Chords

A Day to Remember

metalcore, pop punk, screamo

Chords: Gm, Bb, F, Eb, Bm
Starndard tuning 

[Intro]

(background guitar Gm, Bb, F) 

e|----------------------------------------------------|--3~-------------|
B|-1h3p1----1h3p1---------1h3p1-----------------------|-----------------| 
G|-------3-0-----3-0-3-3-3------3-0-2-2-3-2-2-2-3-2-2-|-----------------| 
D|----------------------------------------------------|-----------------| 
A|----------------------------------------------------|-----------------| 
E|----------------------------------------------------|-----------------|
                                                   x2  end on 

[Verse 1]

Gm      Bb     F                  Gm 
Hey darling, I hope you're good tonight 
      Bb                  F
And I know you don't feel right when I'm leaving 
Gm 
Yeah, I want it but no, I don't need it 
Bb                F               Gm 
Tell me something sweet to get me by 
 Bb                      F
'Cause I can't come back home 'til they're singin' 


[Pre Chorus]

Bb(pm)    F(pm)     Gm(pm) 
La, la la la, la la la 
'Til everyone is singin' 


[Chorus]

Bb                   F 
If you can wait 'til I get home 
       Gm                                 Eb    F(optional) 
Then I swear to you that we can make this last (La la la) 
Bb                   F 
If you can wait 'til I get home 
       Gm                                           Eb      
Then I swear come tomorrow, this will all be in our past 
F(optional)
It might be for the best 


[Instrumental]

(background guitar Gm, Bb, F) 

e|----------------------------------------------------|--3~-------------|
B|-1h3p1----1h3p1---------1h3p1-----------------------|-----------------| 
G|-------3-0-----3-0-3-3-3------3-0-2-2-3-2-2-2-3-2-2-|-----------------| 
D|----------------------------------------------------|-----------------| 
A|----------------------------------------------------|-----------------| 
E|----------------------------------------------------|-----------------|
                                                   x2  end on 

[Verse 2] (same as verse 1)

Hey sweetie, I need you here tonight 
And I know that you don't wanna be leaving 
Yeah, you want it but I can't help it 
I just feel complete when you're by my side 
But I know you can't come home 'til they're singin' 


[Pre-Chorus]

Bb         F           Gm 
La, la la la, la la la 
     Gm          Bm
'Til everyone is singin' 
Bb        F           Bb 
La, la la la, la la la 


[Chorus] (same as earlier) 

If you can wait 'til I get home 
Then I swear to you that we can make this last 
(La la la) 
If you can wait 'til I get home 
Then I swear come tomorrow, this will all be in our past 
It might be for the best 


[Bridge]

  Gm                        F 
You know you can't give me what I need 
  Bb                        Bb          Gm 
And even though you mean so much to me 
Gm                 F 
I can wait through everything 
  F 
Is this really happening? 

(Palm mute)

   Gm                        F 
I swear I'll never be happy again 
              F                       Gm
And don't you dare say we can just be friends 
                            F 
I'm not some boy that you can sway 
             F
We knew it'd happen eventually 


[Outro] (Electric guitar)

Bb        F         Gm
La, la la la, la la la 
Now everybody's singin' 
Bb        F         Gm
La, la la la, la la la 
Now everybody's singin' 
(If you can wait 'til I get home) 
Bb        F         Gm
La, la la la, la la la 
Now everybody's singin' 
(Then I swear we can make this last) 

La, la la la, la la la 
Now everybody's singin' 

If you can wait 'til I get home 
Then I swear we can make this last

More chords by A Day to Remember: