A Day to Remember - If It Means A Lot To You Guitar Chords

A Day to Remember

metalcore, pop punk, screamo

Chords: Cadd9, G, D/F#, Em7
CAPO 3

CHORDS:
 Cadd9   G   D/F#   Em7
|--3--|--3--|--3--|--3--|
|--3--|--3--|--3--|--3--|
|--0--|--0--|--2--|--0--|
|--2--|--0--|--0--|--2--|
|--3--|--2--|--0--|--2--|
|--X--|--3--|--2--|--0--|

[Intro]
(Guitar 1)

Cadd9, G, D/F#

(Guitar 2)

e|-----------------------------3--3----------------------------------|
B|-----------------------------3--3----------------------------------|
G|--2h4--2p0-----2h4--2p0------0--0--2h4--2p0------------------------|
D|------------2------------2-------------------2---4-5-5-4-4--5-4----|
A|-------------------------------------------------------------------|
E|-------------------------------------------------------------------|

(Guitar 3) (second time around)

e|----------------------------3--3-----------------------------------|
B|--1h3--3p1-----1h3--3p1-----3--3--1h3--3p1-------------------------|
G|------------0------------0--0--0------------0--2-4-4-2-2-4-4-2-2-0-|
D|-------------------------------------------------------------------|
A|-------------------------------------------------------------------|
E|-------------------------------------------------------------------|


[Verse 1]

 Em7       G
And hey darling
  D/F#             Em7
I hope you're good tonight
       G                   D/F#
And I know you don't feel right when I'm leaving
Em7 
Yeah I want it but no I don't need it
G                D/F#           Em7
Tell me something sweet to get me by
    Cadd9               G
'Cuz I can't come back home till they're singing

Cadd9   D/F#       Em7
La, la la la, la la la
G
'Til everyone is singing


[Chorus]

G                   D/F#
If you can wait till I get home
       Em7
Then I swear to you
                      Cadd9
That we can make this last

(La la la)
G                   D/F#
If you can wait till I get home
       Em7
Then I swear come tomorrow
                       Cadd9
This will all be in the past
        G
Well it might before the best


[Instrumental]
(Guitar 1)

Cadd9, G, D/F#

(Guitar 2)

e|-----------------------------3--3----------------------------------|
B|-----------------------------3--3----------------------------------|
G|--2h4--2p0-----2h4--2p0------0--0--2h4--2p0------------------------|
D|------------2------------2-------------------2---4-5-5-4-4--5-4----|
A|-------------------------------------------------------------------|
E|-------------------------------------------------------------------|

(Guitar 3) (second time around)

e|----------------------------3--3-----------------------------------|
B|--1h3--3p1-----1h3--3p1-----3--3--1h3--3p1-------------------------|
G|------------0------------0--0--0------------0--2-4-4-2-2-4-4-2-2-0-|
D|-------------------------------------------------------------------|
A|-------------------------------------------------------------------|
E|-------------------------------------------------------------------|


[Verse 2]

Em7         G
And hey sweetie
D/F#                  Em7
Well I need you here tonight
      G                   D/F#
And I know that you don't want to be leaving me
Em7
Yeah you want it but I can't help it
G               D/F#                   Em7
I just feel complete when you're by my side
       Cadd9               G
But I know you can't come home 'til they're singing

Cadd9     D/F#      Em7
La, la la la, la la la
G
'Til everyone is singing
Cadd9    D/F#       G
La, la la la, la la la


[Chorus]

G                   D/F#
If you can wait till I get home
       Em7
Then I swear to you
                      Cadd9
That we can make this last

(La la la)
G                   D/F#
If you can wait till I get home
       Em7
Then I swear come tomorrow
                       Cadd9
This will all be in the past
        G                Cadd9
Well it might before the best


[Bridge]

                   Cadd9          G
You know you can't give me what I need
                        Em7
And even tho it means so much to me
                      D/F#
I can't wait through everything

Is this really happening

Cadd9                         G
I swear I'll never be happy again
                                   Em7
And don't you dare say that we can just be friends
                              D/F#
I'm not just some boy you can sway

We know what will happen eventually


[Outro]

Cadd9    D/F#     Em7
La, la la la, la la la
        G
Now everybody's singing
Cadd9    D/F#     Em7
La, la la la, la la la
        G
Now everybody's singing
Cadd9    D/F#     Em7
La, la la la, la la la
        G
If you can wait ‘til I get home
(Now everybody's singing)
Cadd9    D/F#     Em7
Then I swear to you that we can make this last

(La, la la la, la la la
        G
Now everybody's singing)
If you can wait ‘til I get home
(La, la la la, la la la
Now everybody's singing)
Then I swear to you that we can make this last
(La, la la la, la la la
Now everybody's singing)
La

More chords by A Day to Remember: